» »

/0-9/311-tabs-28.html

»

T & P Combo Bass tabs (ver.2)

Artists:  A B C D E F G H I J K L M N O P Q R S T U V W X Y Z # 

T & P Combo Bass tabs (ver.2)

311
Rating:
0/5 (0 votes)

Hard to play? Try these video lessons and learn fast.
                Intro:
g:---|
d:14/|
a:---|
e:---|
b:---|

Riff 2:
g:---------------------------|
d:----4-4---------2-2--------|
a:--------2-2-4-4------------|
e:2-2-----------------1-1-1-1|
b:---------------------------|

Riff 3:
g:---------------------------------------------------------------|
d:---------------------------------------------------------------|
a:---------------------------------------------------------------|
e:0-1-1-0-1-1-0-1-0-1-1-0-1-1-0-1-1-2-2-1-2-2-1-2-1-2-2-1-2-2-1-2|
b:---------------------------------------------------------------|

Riff 4:
g:-----------------------------------|
d:-----------------------------------|
a:------7-----------7--------7-------|
e:--0-0---0---0-0--0---0-0--0---0-0-0|
b:-----------------------------------|

Riff 5:
g:---------------------------|
d:-------------4--------5-5-5|
a:7--------------------------|
e:--0-0-0-0-2-----2-0-3------|
b:---------------------------|

Riff 6:This is that insanely fast climb up the strings its really hard the first
time you try it but you'll get(hopefully)
g:------0-1-2-1-0-------------------------------|
d:0-1-2-----------2-1-0-------------------------|
a:-----------------------2-1-0------------------|
e:-----------------------------3-0-3-5-3-0-0-3-5|
b:----------------------------------------------|

Riff 7:
g:-----------------|
d:-----------------|
a:-----------------|
e:3-0-3-5-3-0-0-3-5|
b:-----------------|

Riff 7 (last time)
g:-----------|
d:-----------|
a:-----------|
e:3-0-3-5-3-0|
b:-----------|

Thats it.This is NOT a beginer song(i maid the sad mistake of trying
to figure it out the 2nd week i was playing that was funny)
So unles your gifted with insane bass playing powers only try this
song when you think your more advanced trust me you will NOT get
the first time.
            
Hard to play? Try these video lessons and learn fast. | Correct




comments powered by Disqus
↑ Back to top | Tablatures and chords are parodies/interpretations of the original songs. You may use it for private study, scholarship, research or language learning purposes only