>
 >
 >
T & P Combo

T & P Combo Guitar Tabs

311 - T & P Combo chords, tabs, tablatures, lyrics

Guitar lessons | Add/correct | Request | Top 50 tabs Artists:  A B C D E F G H I J K L M N O P Q R S T U V W X Y Z 0-9

T & P Combo Guitar Tabs – 311

CD, Sheet music, Poster

Do you like T & P Combo? Share with your friends now
TabsTabs v2
++Standard Tuning++
                                                                       

**GUITAR ONE**

---4-4-4-4---4-4-4-4---4-4-4-4-|----4---4---4----5-5-5-4-|
---2-2-2-2---2-2-2-2---2-2-2-2-|----2---2---2----3-3-3-2-|
---2-2-2-2---2-2-2-2---2-2-2-2-|----2---2---2----3-3-3-2-|
-------------------------------|-------------------------|
-------------------------------|-------------------------|
-------------------------------|-------------------------|

                                                                                                                                 
**GUITAR 2**

-----------------------------------|----------------------------------|
-----------------------------------|----------------------------------|
-----------------------------------|----------------------------------|
---------------4-4-----------------|--------------2-2-----------------|
-------------------x-x-x-x-2-2-x-x-|--4-4-x-x-x-x---------------------|
---2-2-x-x-x-x---------------------|------------------x-x-x-x-1-1-1-1-|


**GUITAR 1**

----------------------------------|----------------------------------|
----------------------------------|----------------------------------|
----------------------------------|----------------------------------|
----------------------------------|----------------------------------|
----------------------------------|----------------------------------|
--0-1-1-0-1-1-0-1-0-1-1-0-1-1-0-1-|--1-2-2-1-2-2-1-2-1-2-2-1-2-2-1-2-|

**GUITAR 2**

----------------------------------|----------------------------------|
----------------------------------|----------------------------------|
----------------------------------|----------------------------------|
--2-3-3-2-3-3-2-3-2-3-3-2-3-3-2-3-|--3-4-4-3-4-4-3-4-3-4-4-3-4-4-3-4-|
----------------------------------|----------------------------------|
----------------------------------|----------------------------------|


**GUITAR 1**

----------------------------------|----------------------------------|
----------------------------------|----------------------------------|
----------------------------------|----------------------------------|
--2---------------2---------------|--2---------------2-------2-------|
----------------------------------|----------------------------------|
----0-x-0-x-0-x-0---0-x-0-0-0-x-0-|----0-x-0-x-0-x-0---0-x-0---0-x-0-|


                                                                      
----------------------------------|----------------------------------|
----------------------------------|----------------------------------|
----------------------------------|----------------------------------|
--2-----------------4-4-----5-5---|--2-----------------4-4-----5-5---|
----------------------------------|----------------------------------|
----0-x-0-x-0-x-0h2-----2-3-----0-|----0-x-0-x-0-x-0h2-----2-3-----0-|

**GUITAR 2**

--7-7-7-7---7-7-7-7---7---7-|--7-7-7-7--7--7-7-7---8-8---|
--7-7-7-7---7-7-7-7---7---7-|--7-7-7-7--7--7-7-7---8-8---|
--7-7-7-7---7-7-7-7---7---7-|--7-7-7-7--7--7-7-7---8-8---|
----------------------------|----------------------------|
----------------------------|----------------------------|
----------------------------|----------------------------|


                                                            
--7-7--7--7--7-7-7-7--8-8-8--|--7-7--7--7--7-7-7-7--8-8-8--|
--7-7--7--7--7-7-7-7--8-8-8--|--7-7--7--7--7-7-7-7--8-8-8--|
--7-7--7--7--7-7-7-7--8-8-8--|--7-7--7--7--7-7-7-7--8-8-8--|
-----------------------------|-----------------------------|
-----------------------------|-----------------------------|
-----------------------------|-----------------------------|


Chorus **GUITARS 1 & 2**

---------------------------------|----------------------------|
---------------------------------|----------------------------|
--------0-1-2-1-0----------------|----------------------------|
--0-1-2-----------2-1-0----------|----------------------------|
------------------------2-1-0----|--2-------------------------|
------------------------------3--|--0--x-x-3h5--3--0--0-3-5---|


                                                        
---------------------------|---------------------------|
---------------------------|---------------------------|
---------------------------|---------------------------|
---------------------------|---------------------------|
---------------------------|---------------------------|
--3--0--3-5--3--0--0-3-5---|--3--0--3-5--3--0--0-3-5---|





Comments


Popular 311 tabs & chords
Creatures Bass Tabs
Galaxy 1 Bass Tabs
Livin' & Rockin' Bass Tabs
My Stoney Baby Bass Tabs
Old Funk Bass Tabs
Omaha Stylee Bass Tabs
Color Drum Tabs
Come Original 3 Tabs
Getting Through To Her Tabs
Ill Be Here Awhile Tabs


Song lyrics



↑ Back to top | Tablatures and chords are parodies/interpretations of the original songs. You may use it for private study, scholarship, research or language learning purposes only
© 2014 AZChords.com Contact us | Privacy policy | DMCA | Add/correct tabs | Request tabs | Top 50 tabs