» »

/0-9/311-tabs-28.html

»

311, T & P Combo Bass tabs (ver.1)

Artists:  A B C D E F G H I J K L M N O P Q R S T U V W X Y Z # 

T & P Combo Bass tabs (ver.1)

311 Tabs
Rating:
0/5 (0 votes)
T & P Combo lessons Tabs too difficult? Try these video lessons and learn fast
                Questions/Comments

This may not be an easy song for beginners so practice slowly and you'll get it.

Intro
1|--------|
2|--------|
3|--------|
4|--14/2--|
5|--------|

Verse 1
1|----------------------|
2|----4-4-4---------2---|
3|----------2-3-4-4-----|
4|-2-2----------------1-|
5|----------------------|

Verse 2
1|---------------------------------------------------------------------------------------------------------------------|
2|---------------------------------------------------------------------------------------------------------------------|
3|---------------------------------------------------------------------------------------------------------------------|
4|--0--1--1--0--1--1--0--1--0--1--1--0--1--1--0--1--1--2--2--1--2--2--1--2--1--2--2--1--2--2--1--2--2--|
5|---------------------------------------------------------------------------------------------------------------------|

Pre-Chorus A
1|-9-------9-------9-------9---------|
2|-----------------------------------|
3|---7-7-7---7-7-7---7-7-7---7-7-7-8-|
4|-----------------------------------|
5|-----------------------------------|

Pre-Chorus B
1|-----------------------------|
2|-----------------------------|
3|-----------------------------|
4|-0-0-0-0-0-0-2-2-2-2-3-3-3-3-|
5|-----------------------------|

Chorus A
1|--------------------------------------------------------------------------------------|
2|-------------5--6--7--6--5----------------------------------------------------------|  
3|--5--6--7--------------------7--6--5------------------------0----------------0----|
4||------------------------------------------7--6--5/3--0--3------3--0--0--3--------|
5|--------------------------------------------------------------------------------------|

Chorus B
1|--------------------------------------------------------------------------------------------------------------------------|
2|--------------------------------------------------------------------------------------------------------------------------|
3|-------------0----------------0-------------0-----------------0------------0-----------------0-------------0----------|
4|---3--0--3-----3--0--0--3------3--0--3------3--0--0--3------3--0--3-----3--0--0--3-------3--0--3-----3--0----|
5|--------------------------------------------------------------------------------------------------------------------------|

~*~Song Structure~*~
Intro
Verse 1 - 4 Times
Verse 2 - 4 Times
Pre-Chorus A - 2 Times
Pre-Chorus B - 2 Times
Chorus A - 4 Times
Chorus B
Verse 1 - 4 Times
Verse 2 - 4 Times
Pre-Chorus A - 2 Times
Pre-Chorus B - 2 Times
Chorus A - 4 Times
Chorus B
            

comments powered by Disqus
↑ Back to top | 311 Bass for T & P Combo. Lyrics for acoustic guitar and electric guitar. Tablatures and chords are parodies/interpretations of the original songs. You may use it for private study, scholarship, research or language learning purposes only