» »

/0-9/311-tabs-28.html

»

311, Come Original Tabs (ver.1)

Artists:  A B C D E F G H I J K L M N O P Q R S T U V W X Y Z # 

Come Original Tabs (ver.1)

311 Tabs
 Rating:
4/5 (13 votes)
Come Original lessons Tabs too difficult? Try these video lessons and learn fast
                'Come Original'
performed by the greatest band ever 311
music by miT mahoney,nick hexum,s.a martinez,p-nut,chad sexton
tuning (EADGBe)
================
The others tabs managed to leave out vital parts to the song
so here it is.I got help from the 311 day 04 dvd,please rate!!!
===============================================================
Intro
==========
e--5-5--5--5------------------------|
B--5-5--5--5------------------------|
G--7-7--7--7--7-6-------------------|x3
D--7-7--7--7------9-7-6-7-----------|
A--5-5--5--5---------------9-7------|
E--5-5--5--5------------------------|

e--5-5--5-5-------------------------|
B--5-5--5-5-------------------------|
G--7-7--7-7---7-6-------------------|
D--7-7--7-7-------9-7-6------6-9----|
A--5-5--5-5--------------7-9--------|
E--5-5--5-5-------------------------|

Main riff
=========
e-------------------------------------|
B-------------------------------------|
G-------------------------------------|
D---55-5-5--99-9-9--77-7-7--66-6-6----|
A---55-5-5--99-9-9--77-7-7--66-6-6----|
E---33-3-3--77-7-7--55-5-5--44-4-4----|

e-------------------------------------|
B-------------------------------------|
G-------------------------------------|
D----9------7------5------4------2~---|
A----9------7------5------4------2~---|
E----7------5------3------2------0----|

e-------------------------------------|
B-------------------------------------|
G-------------------------------------|
D------22-22-2222---------------------|
A------22-22-2222---------------------|
E------00-00-0000---------------------|
*listen to song for the timing

e-------------------------------------|
B-------------------------------------|
G-----4--7--------4-----2-------------|(x4)
D--2--x--x--7--5--x--4--x-------------|
A--x--2--5--x--x--2--x--0-------------|
E--0--------5--3-----2----------------|
*two guitar play this,these are the notes for both

Tropical style
=============
e-3~--7~-5~--4~--3~---
B-3~--7~-5~--4~--3~---
G-4~--7~-5~--5~--4~---
D-5~--9~-7~--6~--5~---
A---------------------
E---------------------
*just repeat until the end of the song.
            
Submit corrections

comments powered by Disqus
↑ Back to top | 311 Tabs for Come Original. Lyrics for acoustic guitar and electric guitar. Tablatures and chords are parodies/interpretations of the original songs. You may use it for private study, scholarship, research or language learning purposes only