» »

/0-9/311-tabs-28.html

»

311, Come Original Tabs (ver.2)

Artists:  A B C D E F G H I J K L M N O P Q R S T U V W X Y Z # 

Come Original Tabs (ver.2)

311 Tabs
Rating:
0/5 (0 votes)
Come Original lessons Tabs too difficult? Try these video lessons and learn fast
                10-12-99

S1: standard tunning

INTRO                                 3X's
e|--5-5--5--------------------------------|
B|--5-5--5--------------------------------|
G|--7-7--7--------7-6---------------------|
D|--7-7--7------------9-7-6-7-6-----------|
A|--5-5--5----------------------9-7/------|                   
E|--5-5--5--------------------------------|
 
fourth time

e|--5-5--5--------------------------------|
B|--5-5--5--------------------------------|
G|--7-7--5--------7-6---------------------|
D|--7-7--7------------9-7-6-----6-9-------|
A|--5-5--5------------------7-9-----------|
E|--5-5--5--------------------------------|


verse/chorus
"you got to come original..."
    G5      B5           A5     G#5     last time
e|------------------------------------||----------------|
B|------------------------------------||----------------|
G|----------44-4-4--------------------||-44-------------|
D|-55-5-5---44-4-4--77-7-7--77--66----||-44 ------------|   
A|-55-5-5---22-2-2--77-7-7--77--66----||-22-77--55--44--|
E|-33-3-3-----------55-5-5--55--44----||----55--33--22--|


Bridge 1
(This is when P-Nut does his little solo)
e|--------|
B|--------|
G|--------|
D|--22--22|
A|--22--22|
E|--00--00|


e|----------------------|
B|----------------------|
G|----4\-7-----4---2----|
D|--2------7-5---4------|
A|----------------------|
E|----------------------|

Thats the whole song. Its not hard.

lyrics:

(chorus)
Come original you got to come original
All entertainers come original
You got to come original you got to come original 
All entertainers
Hear why

To come original it ain't nothin' strange
You got to represent you got come full range

Full range of emotion full range of styles
When you come to town you'll have them
Comin' for miles
(chorus)

Black Eyed Peas they comin' full range and
NOFX they comin' full range and
Roni Size he comin' full range 
The one Mr. Vegas you it ain't easy

A warning to the crews out there who think
they're hot
If you're not original rockers you will get shot
Down by the kids neglectin' your art, the 
stuff you did
Eventually it gets so bad puts you to bed
Cuz when the lightning flashes sweet electiricity
All the world then stands revealed with the clarity
Of raw voltage, breifly we see and the hope is 
You'll be able to tell just what dope is
(chorus)

Funk slap bass mixed with the dancehall and
Hip-hop beats and punk guitar and 
Deadly on the mic is the one SA
The name is 311 and you know it ain't easy

This is not a test there's no time to mope
How you gonna cope with radioactive isotope
And boss dj illness upon you now quickly 
Infecting you fast upon the airwaves
This message brought to you by the so large system
Activate and attune yourself with meditation
And green plants they've got mad life
they're sentient 
They're beautiful as you and they like to dance

Everything we do we gotta come original 
Put your hands up in the air and prepare for battle
Sit upon the rhythem like a tire upon a rim
We do it non-stop and then we do it again
Some a them whine and some of them b**ch
They can not do it never switch
Comin' up from the heart and 
Delivered with a wild pitch
Sit upon top the rhythem like a wild stalion
This is the ruling system
(Chorus)
            
Submit corrections

comments powered by Disqus
↑ Back to top | 311 Tabs for Come Original. Lyrics for acoustic guitar and electric guitar. Tablatures and chords are parodies/interpretations of the original songs. You may use it for private study, scholarship, research or language learning purposes only