» »

/0-9/311-tabs-28.html

»

311, Come Original Bass tabs (ver.1)

Artists:  A B C D E F G H I J K L M N O P Q R S T U V W X Y Z # 

Come Original Bass tabs (ver.1)

311 Tabs
 Rating:
2.9/5 (9 votes)
Come Original lessons Tabs too difficult? Try these video lessons and learn fast
1
                311 - "Come Original"
5 String Bass, standard tuning


Intro - play 2x

G|--------------------|-------------------------|
D|--------------------|-------------------------|
A|--------------------|-5-4--2------------------|
E|----rest-4-beats----|---------5--4--5--4--2-0-|
B|--------------------|-------------------------|


Vocals begin
G|--------------------|-------------------------|
D|--------------------|-------------------------|
A|--------------------|-5-4--2------------------|
E|--------------------|---------5--4--5--4--2-0-|
B|-3____----3_______--|-------------------------|

G|--------------------|-------------------------|
D|--------------------|-------------------------|
A|--------------------|-5-4--2----------------2-|
E|--------------------|---------5--4--0--2--4---|
B|-3____----3_______--|-------------------------|




"You Got your Come Original..." - this riff is played 6x
G|---------------------------|---------------------------|
D|---------------------------|---------------------------|
A|--------------2-2--2--2--2-|---------------------------|
E|-3-3--3--3--3--------------|-5-5--5--5--5-5-5--4--4--4-|
B|---------------------------|---------------------------|
   play notes short with rhythm shown above
   


   slightly different rhythm (see lyrics for timing in verse)
G|-----------------------------|-----------------------------|
D|-----------------------------|-----------------------------|
A|---------------2-2--2-2-2--2-|-----------------------------|
E|-3-3--3-3-3--3---------------|-5-5--5-5-5--5-5-5--4-4-4--4-|
B|-----------------------------|-----------------------------|

"Black Eyed Peas they comin' full range & NOFX they comin' full range"


G|-----------------------------|-----------------------------|
D|-----------------------------|-----------------------------|
A|---------------2-2--2-2-2--2-|-2-2--2----------------------|
E|-3-3--3-3-3--3---------------|--------5-5--5-3-3--3-2-2--2-|
B|-----------------------------|-----------------------------|

"Roni Size he comin' full range The one Mr. Vegas you know it ain't easy"





Slap Bass Part (1:02-1:32) - repeat similarly throughout

G|------x---x---------------------|
D|----------------0h2-------5-----|
A|--------------------------------|
E|-0--x---------------0-------0---|
B|--------------------------------|
   S    P   P     P   S     P S






Play 'Come Original' Part Again until 1:52


Play Slap Bass Part again until 2:22




Bridge - play 4x
G|--------------------|----------------------|
D|--------------------|----------------------|
A|----2------5--------|----2---------0-------|
E|-0------------5-----|-3---------2----------|
B|--------------------|----------------------|




Play Slap Bass Part again (2:43-3:03)


Rest for 4 bars/16 beats


Ending - Play 'Come Original' part
            
Submit corrections

comments powered by Disqus
↑ Back to top | 311 Bass for Come Original. Lyrics for acoustic guitar and electric guitar. 1 Tablatures and chords are parodies/interpretations of the original songs. You may use it for private study, scholarship, research or language learning purposes only