» »

/0-9/311-tabs-28.html

»

311, Beautiful Disaster Bass tabs (ver.1)

Artists:  A B C D E F G H I J K L M N O P Q R S T U V W X Y Z # 

Beautiful Disaster Bass tabs (ver.1)

311 Tabs
 Rating:
4.6/5 (11 votes)
Beautiful Disaster lessons Tabs too difficult? Try these video lessons and learn fast
                Beautiful Disaster
311


This is the correct version of Beautiful Disaster. The other tab was tabbed out for 4 
an octave up but it needs to be on a 5-string because of all the low notes.

Intro (this is played other times in the song but ill just call it intro)
G|-----------------------------------------------------------------------|
D|-----------------------------------------------------------------------|
A|-2---2----------0-2---2----------0-2---2----------0-2---2----------0-2-|
E|---3---3--2-3-2-----3---3--2-3-2-----3---3--2-3-2-----3---3--2-3-2-----|
B|-----------------------------------------------------------------------|

Verses
Pt. 1:
G|------------------------------------------------|
D|------------------------------------------------|
A|-2--2-2-2-2-------------------------------------|
E|-------------3-3--3-3-3--0-0--0-0-0--2-2--2-2-2-|
B|------------------------------------------------|

Pt. 2:
G|----------------------------------------------|
D|----------------------------------------------|
A|-2--2-2-0-0-----------------------------------|
E|------------3-3--3-33--0-0--0-0-0--2-2--2-2-2-|
B|----------------------------------------------|

Chorus
Pt. 1:
G|-------------------------------|
D|-------------------------------|
A|-------------------------------|
E|-0--0-0----------2--2-2--------|
B|---------2--2-2---------0--0-0-|

Pt. 2:
G|----------------------------------------|
D|----------------------------------------|
A|----------------------------------------|
E|-0-0--0-0------------2-2--2-2-----------|
B|-----------2-2--2-2------------0-0--0-0-|

Pt. 3:
G|------------------------------------|
D|------------------------------------|
A|------------------------------------|
E|-0-0-0-0-----------2-2-2-2----------|
B|----------2-2-2-2-----------0-0-0-0-|

Bridge
G|-----------------------------|
D|-----------------------------|
A|-----------------------------|
E|-0-0--0-/4--0-0-/4--0-/4-0-0-|
B|-----------------------------|


   ORDER
Intro
Verse Pt1   x6
Verse Pt2   x2
Intro
Verse Pt1   x2
Verse Pt2   x2
Intro
Chorus Pt1  x2
Chorus Pt2  x2
Chorus Pt3  x2
Bridge      x4
Verse Pt1   x6
Verse Pt2   x2
Intro
Chorus Pt1  x2
Chorus Pt2  x2
Chorus Pt3  x3
Bridge      x4
            
Submit corrections

comments powered by Disqus
↑ Back to top | 311 Bass for Beautiful Disaster. Lyrics for acoustic guitar and electric guitar. Tablatures and chords are parodies/interpretations of the original songs. You may use it for private study, scholarship, research or language learning purposes only