» »

/0-9/311-tabs-28.html

»

311, Beautiful Disaster Bass tabs (ver.3)

Artists:  A B C D E F G H I J K L M N O P Q R S T U V W X Y Z # 

Beautiful Disaster Bass tabs (ver.3)

311 Tabs
 Rating:
4/5 (7 votes)
Beautiful Disaster lessons Tabs too difficult? Try these video lessons and learn fast
                Album:Transistor

Riff 1:
g:-------------------------------------------------------|
d:-------------------------------------------------------|
a:2-0-2---------0-2-0-2---------0-2-0-2-------0-2-------2|
e:------3-2-3-2---------3-2-3-2---------3-2-3-----3-2-3--|
b:-------------------------------------------------------|

Riff 2:(The 2nd time around its a synth pedal or a keybord play riffs 2,3) 
g:-------------------------------------------|
d:-------------------------------------------|
a:2--2-2-2-2---------------------------------|
e:-----------3-3--3-3-3-0--0-0-0-0-2-2--2-2-2|
b:-------------------------------------------|

Riff 3:
g:-------------------------------------------|
d:-------------------------------------------|
a:-------------------------------------------|
e:2--2-2-0-0---------------------------------|
b:-----------3-3--3-3-3-0--0-0-0-0-2-2--2-2-2|

Riff 4:
g:-----------------------------------------------|
d:-----------------------------------------------|
a:------------------2-2-2------------------------|
e:2-2-2-------4-4-4-------2-2-2-------4-4-4------|
b:------4-4-4-------------------4-4-4-------2-2-2|

Riff 5:
g:--------------------------------------------------------------|
d:--------------------------------------------------------------|
a:------------------------------------------------------2-2-2--2|
e:2-2-2--2----------4-4-4--4----------2-2-2--2------------------|
b:---------4-4-4--4----------2-2-2--2----------4-4-4--4---------|

Riff 6:
g:-----------------------------------------------------------------------|
d:-----------------------------------------------------------------------|
a:-----------------------------------------------------------------------|
e:22222222----------44444444----------22222222----------44444444---------|
b:---------44444444----------22222222----------44444444----------22222222|

Riff 7:
g:-------------------------|
d:-------------------------|
a:-------------------------|
e:0-0-0-0--0-3b-0-0-3b-0-3b|
b:-------------------------|
            
Submit corrections

comments powered by Disqus
↑ Back to top | 311 Bass for Beautiful Disaster. Lyrics for acoustic guitar and electric guitar. Tablatures and chords are parodies/interpretations of the original songs. You may use it for private study, scholarship, research or language learning purposes only