» »

/0-9/311-tabs-28.html

»

311, Beautiful Disaster Bass tabs (ver.2)

Artists:  A B C D E F G H I J K L M N O P Q R S T U V W X Y Z # 

Beautiful Disaster Bass tabs (ver.2)

311 Tabs
 Rating:
4.4/5 (7 votes)
Beautiful Disaster lessons Tabs too difficult? Try these video lessons and learn fast
1
                'Beautiful Disaster' -- Bass Tab
Performed by 311
Music by:  N. Hexum
Lyrics by:  N. Hexum
(c) 1997 Hydroponic Music BMI
---------------


Intro:
======

1:-----------------
2:-----------------
3:-2-0-2-----------
4:-------3-2-3-2-0-


Intro Fill:
===========

1:-----------
2:-----------
3:-2-------2-
4:---3-2-3---


Riff A:
=======

1:-----------------------------------------
2:-----------------------------------------
3:-2-2-2-2-2-------------------------------
4:-----------3-3-3-3-3-0-0-0-0-0-2-2-2-2-2-


Riff B:
=======

1:------------------------------------------
2:------------------------------------------
3:-2--2-2-0-0-------------------------------
4:------------3-3-3-3-3-0-0-0-0-0-2-2-2-2-2-


Chorus A:
=========

1:-------------------------
2:-------------------------
3:-------4-4-4-------2-2-2-
4:-0-0-0-------2-2-2-------


Chorus B:
=========

1:---------------------------------
2:---------------------------------
3:---------4-4-4-4---------2-2-2-2-
4:-0-0-0-0---------2-2-2-2---------


Chorus C:
=========

1:-------------------------------------------------
2:-------------------------------------------------
3:-----------------4-4-4-4-4-4-4-4-----------------
4:-0-0-0-0-0-0-0-0-----------------2-2-2-2-2-2-2-2-

1:-----------------
2:-----------------
3:-2-2-2-2-2-2-2-2-
4:-----------------


Bridge:
=======

1:---------------------------
2:---------------------------
3:---------------------------
4:-0-0--0-b3b--0-0-b3b-0-b3b-


Song Structure:
===============
Guitar Intro
Bass Intro  (x3)
Intro fill
Riff A  (x6)
Riff B  (x2)
Intro  (x3)
Intro Fill
Riff A  (x2)
Riff B  (x2)
Intro  (x3)
Intro Fill
Chorus A  (x2)
Chorus B  (x2)
Chorus C  (x2)
Bridge  (x4)
Riff A  (x6) (Times 5 and 6 are synth. parts)
Riff B  (x2)
Intro  (x3)
Intro Fill
Chorus A  (x2)
Chorus B  (x2)
Chorus C  (x2)
Bridge  (x4)
End on E


== Last Updated:  August 11, 1997 ==
            
Submit corrections

comments powered by Disqus
↑ Back to top | 311 Bass for Beautiful Disaster. Lyrics for acoustic guitar and electric guitar. 1 Tablatures and chords are parodies/interpretations of the original songs. You may use it for private study, scholarship, research or language learning purposes only