» » »

Zara Larsson - Lush Life Tabs

Artists:  A B C D E F G H I J K L M N O P Q R S T U V W X Y Z # 

Lush Life Tabs

(ver. 1) Click to play this song!
Zara Larsson
 Rating:
2.2/5 (25 votes)

 Lush Life  lessons Tabs too difficult? Try these video lessons and learn fast
 
                Guitar 1
e|---------------------------------------------------------------------------|
B|--------------------------3------------------------------------------------|
G|------3--3----------3--5---3-----3---5------3h5----------------------------|
D|----5-------5----5------------5---------3h5--------------------------------|
A|---------------------------------------------------------------------------|
E|---------------------------------------------------------------------------|

e|---------------------------------------------------------------------------|
B|--------------------------3----3-------------------------------------------|
G|------3--3---------3--5 ---3-----5----3----5-----3h5-----------------------|
D|----5-------5---5-------------5--------------3h5---------------------------|
A|---------------------------------------------------------------------------|
E|---------------------------------------------------------------------------| 

Guitar 2 (Capo 1)
         D      Bm      F#m      E
e|-------2-------2-------2-------0-------------|
B|-------3-------3-------2-------0-------------|
G|-------2-------4-------2-------1-------------|
D|---------------------------------------------|
A|---------------------------------------------|
E|---------------------------------------------|            
Submit corrections


        Lush Life  lessons Hard to play? Try these video lessons and learn fast Lush Life  lessons
        
↑ Back to top | Tablatures and chords for acoustic guitar and electric guitar, ukulele, drums are parodies/interpretations of the original songs. You may use it for private study, scholarship, research or language learning purposes only