» » »

Zara Larsson - Lush Life Tabs

Artists:  A B C D E F G H I J K L M N O P Q R S T U V W X Y Z # 

Lush Life Tabs

(ver. 2) Click to play this song!
Zara Larsson
 Rating:
4.3/5 (15 votes)

 Lush Life  lessons Tabs too difficult? Try these video lessons and learn fast
 
                [Intro]

e|---------------------------------------------------------------------------|
B|---------------------0-----------------------------------------------------|
G|---0--0------0-2------0-0-----0------0h2-----------------------------------|
D|-2-------2-2----------------2----0h2---------------------------------------|
A|-3-------0------------------5----------------------------------------------|
E|---------------------0-----------------------------------------------------|


[Verse]

e|---------------------------------------------------------------------------|
B|---------------------0-----------------------------------------------------|
G|---0--0------0-2------0-0--------------------------------------------------|
D|-2-------2-2----------------2----------------------------------------------|
A|-3-------0------------------5----------------------------------------------|
E|---------------------0-----------------------------------------------------|
 

[Chorus]

e|----------------0----------------------------------------------------------|
B|--3-3-3-3---3---3--0-0----0-0-0-0----0------------0-0-0-0------------------|
G|---------------------------------------2---2-0-2---------------------------|
D|-----------------------------------------------------0---------------------|
A|------------3-------------0------------------------------------------------|
E|---------------------------------------0-----------------------------------|
 
e|---------------------------------------------------------------------------|
B|--0-0-0------0-0-0-0---0-0-0-----------------------------------------------|
G|---------2----------------------2------------------------------------------|
D|-------------------------------------0-------------------------------------|
A|--3--------0---------------------------------------------------------------|
E|--------------------------0------------------------------------------------|
 
e|----------------0----------------------------------------------------------|
B|--3-3-3-3---3---3--0-0----0-0-0-0----0------------0-0-0-0------------------|
G|---------------------------------------2---2-0-2---------------------------|
D|-----------------------------------------------------0---------------------|
A|------------3-------------0------------------------------------------------|
E|---------------------------------------0-----------------------------------|
  
e|---------------------------------------------------------------------------|
B|--0-0-0------0-0-0-0---0-0-0-----------------------------------------------|
G|---------2----------------------2---0-------0h2----------------------------|
D|-------------------------------------0—0h2---------------------------------|
A|--3--------0---------------------------------------------------------------|
E|--------------------------0------------------------------------------------|
 

[Verse 2]

e|---------------------------------------------------------------------------|
B|--0-0-0----------0-0-0-----------------------------------------------------|
G|------------0h2------------------------------------------------------------|
D|--------2------------------2-----------------------------------------------|
A|-3------0------------------5-----------------------------------------------|
E|------------------0--------------------------------------------------------|

e|---------------------------------------------------------------------------|
B|--0-0-0----------0-0-0-----------------------------------------------------|
G|------------0h2------------------------------------------------------------|
D|--------2------------------------------------------------------------------|
A|-3------0------------------------------------------------------------------|
E|------------------0--------------------------------------------------------|

e|---------------------------------------------------------------------------|
B|--0-0-0----------0-0-0-----------------------------------------------------|
G|------------0h2------------------------------------------------------------|
D|--------2------------------2-----------------------------------------------|
A|-3------0------------------5-----------------------------------------------|
E|------------------0--------------------------------------------------------|

e|---------------------------------------------------------------------------|
B|--0-0-0----------0-0-0-----------------------------------------------------|
G|------------0h2------------------------------------------------------------|
D|--------2------------------------------------------------------------------|
A|-3------0------------------------------------------------------------------|
E|------------------0--------------------------------------------------------|


[Chorus]
 
e|----------------0----------------------------------------------------------|
B|--3-3-3-3---3---3--0-0----0-0-0-0----0------------0-0-0-0------------------|
G|---------------------------------------2---2-0-2---------------------------|
D|-----------------------------------------------------0---------------------|
A|------------3-------------0------------------------------------------------|
E|---------------------------------------0-----------------------------------|
 
e|---------------------------------------------------------------------------|
B|--0-0-0------0-0-0-0---0-0-0-----------------------------------------------|
G|---------2----------------------2------------------------------------------|
D|-------------------------------------0-------------------------------------|
A|--3--------0---------------------------------------------------------------|
E|--------------------------0------------------------------------------------|
 
e|----------------0----------------------------------------------------------|
B|--3-3-3-3---3---3--0-0----0-0-0-0----0------------0-0-0-0------------------|
G|---------------------------------------2---2-0-2---------------------------|
D|-----------------------------------------------------0---------------------|
A|------------3-------------0------------------------------------------------|
E|---------------------------------------0-----------------------------------|
 
e|---------------------------------------------------------------------------|
B|--0-0-0------0-0-0-0---0-0-0-----------------------------------------------|
G|---------2----------------------2---0-------0h2----------------------------|
D|-------------------------------------0—0h2---------------------------------|
A|--3--------0---------------------------------------------------------------|
E|--------------------------0------------------------------------------------|


[Verse 3]

e|---------------------------------------------------------------------------|
B|--0-0-0----------0-0-0--------0-0-0--------0-0-0-----1h3-1-0---------------|
G|------------0h2-------------------------0h2--------------------------------|
D|--------2----------------2------------2---------------0--------------------|
A|-3------0----------------5----3------0-------------------------------------|
E|------------------0----------------------------0---------------------------|
 
e|--------------------------------------------0-3---5--5-7-5-3-0-------------|
B|--0-0-0----------0-0-0--------0-0-0-0--------------------------------------|
G|------------0h2-----------0h2----------------------------------------------|
D|--------2----------------2---------------2---------------------------------|
A|-3------0----------------5------0------------------------------------------|
E|------------------0-----------------------------0--------------------------|
  
 
[Bridge]

e|-3--0--3-----3--0--3-------------------------------------------------------|
B|-----------0-----------0---0-0-0----------0--0-0-0-0-----------------------|
G|-----------------------------------2-0h2---------------2-0-----------------|
D|-----------------0---------------------------------------------------------|
A|-3--0--------------------3--------0-------------0--------------------------|
E|-----------0-------------------------------0-------------------------------|
 
e|-3--0--3-----3--0--3--5-5-3------------------------------------------------|
B|-----------0-------------------0-0-0----------0--0-0-0-0-------------------|
G|----------------------------------------2-0h2---------------2-0------------|
D|-----------------0---------------------------------------------------------|
A|-3--0-------------------------3--------0-------------0---------------------|
E|-----------0------------------------------------0--------------------------|
 

[Chorus]

e|----------------0----------------------------------------------------------|
B|--3-3-3-3---3---3--0-0----0-0-0-0----0------------0-0-0-0------------------|
G|---------------------------------------2---2-0-2---------------------------|
D|-----------------------------------------------------0---------------------|
A|------------3-------------0------------------------------------------------|
E|---------------------------------------0-----------------------------------|
 
e|---------------------------------------------------------------------------|
B|--0-0-0------0-0-0-0---0-0-0-----------------------------------------------|
G|---------2----------------------2------------------------------------------|
D|-------------------------------------0-------------------------------------|
A|--3--------0---------------------------------------------------------------|
E|--------------------------0------------------------------------------------|
 
e|----------------0----------------------------------------------------------|
B|--3-3-3-3---3---3--0-0----0-0-0-0----0------------0-0-0-0------------------|
G|---------------------------------------2---2-0-2---------------------------|
D|-----------------------------------------------------0---------------------|
A|------------3-------------0------------------------------------------------|
E|---------------------------------------0-----------------------------------|
 
e|---------------------------------------------------------------------------|
B|--0-0-0------0-0-0-0---0-0-0-----------------------------------------------|
G|---------2----------------------2---0-------0h2----------------------------|
D|-------------------------------------0—0h2---------------------------------|
A|--3--------0---------------------------------------------------------------|
E|--------------------------0------------------------------------------------|


[Outro]

e|--------------------------------------------------------------------0------|
B|---0--0----0---------0--0----0----------0--0----0---0-0-0-0-3--------------|
G|----2----2-------------2---2--------------2---2----------------------------|
D|-2------------2-2--2------------2--2-2------------2----------------0-------| x2
A|-3-------0-----------------0----------3-------0----------------------------|
E|--------------------0----------------------------------0-------------------|            
Submit corrections


        Lush Life  lessons Hard to play? Try these video lessons and learn fast Lush Life  lessons
        
↑ Back to top | Tablatures and chords for acoustic guitar and electric guitar, ukulele, drums are parodies/interpretations of the original songs. You may use it for private study, scholarship, research or language learning purposes only