» » »

You Me At Six - No One Does It Better Tabs

Artists:  A B C D E F G H I J K L M N O P Q R S T U V W X Y Z # 

No One Does It Better Tabs

(ver. 2) Click to play this song!
You Me At Six
 Rating:
4.1/5 (31 vote)

 No One Does It Better lessons Tabs too difficult? Try these video lessons and learn fast
 
                
[Intro](The slide up is optional)- Use this for the verses
e|------------------------------------------------7-----|
B|--8--8------7---5-------5-5-5-5/------8----7-------5--|
G|------------------------------------------------------|
D|-----------------------------------------------5------|
A|-7--7-------5---3------3-3-3-3/------7-----5-------3--|
E|------------------------------------------------------|

[Verse 1 & 2] - Play intro tab x4

I woke up this morning with a grudge the size (of a) short story. Oh, I feel, I feel so low.
Let me start at the end, the part I haven't figured out yet. Yes I am, I'm moving slow.

You are playing the lead, the headache that my actions feed. Oh I've only got myself to blame.
This is another test which I would fail, and at my best. Oh, always ending the same.

[Prechorus]
C                    Em
 If I were an honest guy.
    D                      C D
I'd give this role another try.

[Chorus]
C                      G               D                                 C
 What do I do when I'm so in love with you? I forgot what I wanted to say.
                             G                       D           Dsus4  
 What do I do when you won't change your ways? It's time, it's time.
          Cadd9  G    A7sus4            D 
If I just save   you, you could save me too.
          Cadd9  G         A7sus4            D 
If I just save   you, then you could save me too.

[Interlude]
e|------------------------------------------------7---------|
B|---8------7-7---5-----------------------8---7-------5--3--|
G|----------------------------------------------------------|
D|------------------------------------------------5---------|
A|-7--------5-5---3-----0-0-0-0---------7-----5-------3-----|
E|------------------------------3-3-3-----------------------|

Da, Da Da Da - Da Da Da Da

[Verse 3] (Using the same tab as before)
e|-----------------------------------------------7-----|
B|--8--8------7---5-------5-5-5-5/------8----7-------5--|
G|------------------------------------------------------|x2
D|-----------------------------------------------5------|
A|-7--7-------5---3------3-3-3-3/------7-----5-------3--|
E|------------------------------------------------------|

I woke up the next morning and I didn't see it coming. Oh, your bags were packed and gone.
Called all your friends, they said they hadn't seen you yet. Oh, my head's going to explode.

[Prechorus] 
C                    Em
 If I were an honest guy.
    D                      C D
I'd give this role another try.

[Chorus:]
C                      G               D                                 C
 What do I do when I'm so in love with you? I forgot what I wanted to say.
                             G                       D           Dsus4  
 What do I do when you won't change your ways? It's time, it's time.
          Cadd9  G    A7sus4            D 
If I just save   you, you could save me too.
          Cadd9  G         A7sus4           D 
If I just save   you, then you could save, you could save me too.

[Bridge] (Use tab or chords, getting louder each repeat)
   Em                      G          D
e|-----------------------------------------------------|
B|--8--8--8--8--8--8--8-----8--8--8----10-10-10-10-----|
G|-----------------------------------------------------|
D|------------------------------------0--0--0--0-------|x3
A|-7--7--7--7--7--7--7----10-10-10---------------------|
E|-----------------------------------------------------|

Em                                 G         D
I believe in the finer things, and you don't believe in me
        Em                                 G            D
I said, I believe in the finer things, and you don't believe in me
        Em                                 G       D
I said, I believe in the finer things, and you don't

[Chorus]
          Cadd9  G    A7sus4            D 
If I just save   you, you could save me too.
          Cadd9  G         A7sus4            D 
If I just save   you, then you could save, you could save me too.
C                      G               D                                 C
 What do I do when I'm so in love with you? I forgot what I wanted to say.
C                      G               D                                 C
 What do I do when I'm so in love with you? I forgot what I wanted to say.

                    G                      D
No one does it better, No one does it better
                                        C
No one does it, oh. No one does it better
              G                      D
No one does it , No one does it better
                                  C
No one does it, oh. No one does it 

[Verse 4]
e|------------------------------------------------7-----|
B|--8--8------7---5-------5-5-5-5/------8----7-------5--|
G|------------------------------------------------------|
D|-----------------------------------------------5------|
A|-7--7-------5---3------3-3-3-3/------7-----5-------3--|
E|------------------------------------------------------|
            
Submit corrections


        No One Does It Better lessons Hard to play? Try these video lessons and learn fast No One Does It Better lessons
        
↑ Back to top | Tablatures and chords for acoustic guitar and electric guitar, ukulele, drums are parodies/interpretations of the original songs. You may use it for private study, scholarship, research or language learning purposes only