» » »

You Me At Six - No One Does It Better Tabs

Artists:  A B C D E F G H I J K L M N O P Q R S T U V W X Y Z # 

No One Does It Better Tabs

(ver. 1) Click to play this song!
You Me At Six
 Rating:
4.3/5 (25 votes)

 No One Does It Better lessons Tabs too difficult? Try these video lessons and learn fast
 
                Tuning: Dropped D
intro/verse X5
e|-----------------------------------------------------------------------------|
B|---------8------8------7-----------5------5-------5--------5----/------------|
G|-----------------------------------------------------------------------------|
D|---(9)-------9----------7---------- 5---------5---------5-------5/-----------|
A|----7------------------5-----------3---(3)-----------------(3)--------/------|
D|-----------------------------------------------------------------------------|

e|-----------------------------------------------------------------------------------|
B|----------8---------7------------12-----------5~~----------------------------------|
G|-----------------------------------------------------------------------------------|
D|--(9)----------------7------------12---------- 5~~---------------------------------|
A|---7----------------5------------10-----------3~~----------------------------------|
D|-----------------------------------------------------------------------------------|
__________________________________________________________________________________________________

pre-chorus
e|--------------------------------------------------------------------------------|
B|--------------------------------------------------------------------------------|
G|---2----- 4------5~----------2-------4-----5~----7~-----------------------------|
D|---2-X5-- 4------5~----------2-X5----4-----5~----7~-----------------------------|
A|---0------2------3~----------0-------2-----3~----5~-----------------------------|
D|--------------------------------------------------------------------------------|
__________________________________________________________________________________________________

Chorus part 1. figure out the rhythm. X2
e|--------------------------------------------------------------------------------|
B|--------------------------------------------------------------------------------|
G|---5---------------- 7----------------------------------------------------------|
D|---5-x8--  5---------7-x16------------------------------------------------------|
A|---3------ 5-x8------5----------------------------------------------------------|
D|-----------5--------------------------------------------------------------------|

chorus part 2. X2
e|---------------------------------------------------------------------------------|
B|---------------------------------------------------------------------------------|
G|---5-------4---2---------------7-------------------------------------------------|
D|---5-x5----4---2-----5---------7x16----------------------------------------------|
A|---3-------2---0----- 5 -x8-----5------------------------------------------------|
D|----------------------5----------------------------------------------------------|
__________________________________________________________________________________________________

intro verse X3
e|-----------------------------------------------------------------------------|
B|---------8------8------7-----------5------5-------5--------5----/------------|
G|-----------------------------------------------------------------------------|
D|---(9)-------9----------7---------- 5---------5---------5-------5/-----------|
A|----7------------------5-----------3---(3)-----------------(3)--------/------|
D|-----------------------------------------------------------------------------|

e|-----------------------------------------------------------------------------------|
B|----------8---------7------------12-----------5~~----------------------------------|
G|-----------------------------------------------------------------------------------|
D|--(9)----------------7------------12---------- 5~~---------------------------------|
A|---7----------------5------------10-----------3~~----------------------------------|
D|-----------------------------------------------------------------------------------|
_________________________________________________________________________________________________

pre-chorus
e|--------------------------------------------------------------------------------|
B|--------------------------------------------------------------------------------|
G|---2----- 4------5~----------2-------4-----5~----7~-----------------------------|
D|---2-X5-- 4------5~----------2-X5----4-----5~----7~-----------------------------|
A|---0------2------3~----------0-------2-----3~----5~-----------------------------|
D|--------------------------------------------------------------------------------|
__________________________________________________________________________________________________

Chorus part 1. X2
e|--------------------------------------------------------------------------------|
B|--------------------------------------------------------------------------------|
G|---5---------------- 7----------------------------------------------------------|
D|---5-x8--  5---------7-x16------------------------------------------------------|
A|---3------ 5-x8------5----------------------------------------------------------|
D|-----------5--------------------------------------------------------------------|

chorus part 2. X2
e|----------------------------------------------------------------------------------|
B|----------------------------------------------------------------------------------|
G|---5-------4---2---------------7--------------------------------------------------|
D|---5-x5----4---2----  5---------7x16----------------------------------------------|
A|---3-------2---0----- 5 -x8-----5-------------------------------------------------|
D|--------------------- 5-----------------------------------------------------------|
__________________________________________________________________________________________________
            
Submit corrections


        No One Does It Better lessons Hard to play? Try these video lessons and learn fast No One Does It Better lessons
        
↑ Back to top | Tablatures and chords for acoustic guitar and electric guitar, ukulele, drums are parodies/interpretations of the original songs. You may use it for private study, scholarship, research or language learning purposes only