» » »

You Me At Six - Loverboy Bass

Artists:  A B C D E F G H I J K L M N O P Q R S T U V W X Y Z # 

Loverboy Bass

(ver. 1) Click to play this song!
You Me At Six
 Rating:
4/5 (4 votes)


 Loverboy lessons Tabs too difficult? Try these video lessons and learn fast
 
                \ - Slide Down
~ - Hold Note

G|---------------|      G|---------| 
D|----320--------|[X12] D|----320--|
A|035-----35-----|      A|035-----3|
D|-----------00~-|      D|---------|

G|-------------------------------------|
D|-------------------------------------|
A|1111-3333--5--5--5--553-1111-----3333|
D|----------0--0--0------------3333----|

G|---------------|      G|---------|
D|----320--------|[X5]  D|----320--|
A|035-----35-----|      A|035-----3|
D|-----------00~-|      D|---------|


G|------------------------------------------------|
D|------------------------------------------------|
A|1111-3333--5--5--5--553-1111-----3333---15[x12]\|
D|----------0--0--0------------3333---------------|


G|-------------------------------------|
D|-------------------------------------|
A|1111-3333--5--5--5--553-1111-----3333|
D|----------0--0--0------------3333----|

G|--------------------------------------------------|
D|--------------------------------------------------|[x2]
A|--------------------------------------------------|
D|12121212121212\-10101010101010\-8888888\-3333333\-|

G|-----------------------------|     2nd time G|--|
D|-----------------------------|[X2] end on:  D|--|
A|-----------------------------|              A|--|
D|12121212-10101010-8888-3333--|              D|0~|


G|---------------|      G|---------| 
D|----320--------|[X4]  D|----320--|
A|035-----35-----|      A|035-----3|
D|-----------00~-|      D|---------|

G|------------------------------------------------|
D|------------------------------------------------|
A|1111-3333--5--5--5--553-1111-----3333---15[x12]\|
D|----------0--0--0------------3333---------------|


G|-------------------------------------|
D|-------------------------------------|
A|1111-3333--5--5--5--553-1111-----3333|
D|----------0--0--0------------3333----|

G|---------------|
D|----320--------|
A|035-----35-----|      
D|-----------00~-|      
            
Submit corrections



        Loverboy lessons Hard to play? Try these video lessons and learn fast Loverboy lessons
        
↑ Back to top | Tablatures and chords for acoustic guitar and electric guitar, ukulele, drums are parodies/interpretations of the original songs. You may use it for private study, scholarship, research or language learning purposes only