» » »

Ying Yang Twins - Dangerous Tabs

Artists:  A B C D E F G H I J K L M N O P Q R S T U V W X Y Z # 

Dangerous Tabs

(ver. 2) Click to play this song!
Ying Yang Twins
 Rating:
4.6/5 (11 votes)
                Standard Tuning

This is just the little guitar riff from the background, sounds best if you palm mute 
whole thing.

|-------------------------------------------|
|-------------------------------------------|
|-------------------------------------------|
|----------------------4-5/9-7--------------|
|------7/9-9----9----5---------9------------|
|-7--7-------10----7-------------10---------|

|-------------------------------------------|
|-------------------------------------------|
|-------------------------7/9-7-------------|
|------7/9-9----9-----7-9-------9-----------|
|-7--7-------10----10-------------10--------|
|-------------------------------------------|
            
Submit corrections

↑ Back to top | Tablatures and chords for acoustic guitar and electric guitar, ukulele, drums are parodies/interpretations of the original songs. You may use it for private study, scholarship, research or language learning purposes only