Home » Y » Yeng Constantino »

Yeng Constantino - Why Can't You Tabs

Artists:  A B C D E F G H I J K L M N O P Q R S T U V W X Y Z # 

Why Can't You Tabs

(ver. 1) Click to play this song!
Yeng Constantino
 Rating:
4/5 (4 votes)
                
Chords:
A9:   x02200
F#m9: 244200

Intro: Drums, then
       A9-E-F#m9-E

e----0--I----0--I----0--I----0-----|I
b---0---I---0---I---0---I---0------|I
g-------I-------I-------I----------|I
d-------I-------I-------I----------|I
a--0----I-------I-------I----------|I
E-------I--0----I--2----I--0-------|I
(2x)

e------I------I------I-------|I
b------I------I------I-------|I
g------I------I------I-------|I
d--7~--I--2~--I--4~--I--2~---|I
a--7~--I--2~--I--4~--I--2~---|I
E--5~--I--0~--I--2~--I--0~---|I
(2x)

verse:

e--------------------------------------------------------|I
b--------------------------------------------------------|I
g--------------------------------------------------------|I
d--777-7-222-2-444-4-222-2--777-7-222-2-444-4-222-2------|I
a--777-7-222-2-444-4-222-2--777-7-222-2-444-4-222-2------|I
E--555-5-000-0-222-2-000-0--555-5-000-0-222-2-000-0------|I
(2x)

mr_rain: or you can play...

e--------------------------------------------------------|I
b--------------------------------------------------------|I
g--------------------------------------------------------|I
d--777-7-999-9-444-4-999-9--777-7-999-9-444-4-999-9------|I
a--777-7-777-7-444-4-777-7--777-7-777-7-444-4-777-7------|I
E--555-5-------222-2--------555-5-------222-2------------|I
(2x)

mr_rain: then, play this on the 2nd verse...

e-----I-------I----I------------|I
b--5~-I-------I-5~-I------------|I
g-----I-6-7-6-I----I-6-7-6\-----|I
d-----I-------I----I------------|I
a-----I-------I----I------------|I
E-----I-------I----I------------|I
(2x)

mr_rain: kayo na po bahala sa timing...
mr_rain: play this while playing above...

e--------------------------------------------------------|I
b--------------------------------------------------------|I
g--------------------------------------------------------|I
d--777-7-222-2-444-4-222-2--777-7-222-2-444-4-222-2------|I
a--777-7-222-2-444-4-222-2--777-7-222-2-444-4-222-2------|I
E--555-5-000-0-222-2-000-0--555-5-000-0-222-2-000-0------|I
(2x)

mr_rain: timing lang po...meju mahirap sa una timingan yan...

A9-E-F#m9-E
I see you at the corner
Then I stared at your face
A9-E-F#m9-E
I wonder who you're lookin at
I wish that was me
A9-E-F#m9-E
But I know that its her
So I guess I have to turn my back this way
A9-E-F#m9-E
But I know that when I close my eyes
Its you that I'll see

ref:

e----------------------------------------------------------------|I
b----------------------------------------------------------------|I
g--77777777--99999999--77777777--99999999--77777777--99999999----|I
d--77777777--99999999--77777777--99999999--77777777--99999999----|I
a--55555555--77777777--55555555--77777777--55555555--77777777----|I
E----------------------------------------------------------------|I

e----------------------------|I
b----------------------------|I
g--77777777--99999(hold)-----|I
d--77777777--99999(hold)-----|I
a--55555555--77777(hold)-----|I
E----------------------------|I

D               E               D
 (no matter how hard I try) to forget you
D               E                          D
 (no matter how hard I try) but its still you
D               E                    D
 (no matter how hard I try) I can't fake it
                           E....
 I can't fake it cause I can't

[CHORUS]

e----0---0--I----0---0--I----0---0--I----0---0-----|I
b---0---0---I---0---0---I---0---0---I---0---0------|I
g-----------I-----------I-----------I--------------|I
d-----------I-----------I-----------I--------------|I
a--0---0----I-----------I-----------I--------------|I
E-----------I--0---0----I--2---2----I--0---0-------|I
(2x)

e--------------------------------------------------------|I
b--------------------------------------------------------|I
g--------------------------------------------------------|I
d--777-7-222-2-444-4-222-2--777-7-222-2-444-4-222-2------|I
a--777-7-222-2-444-4-222-2--777-7-222-2-444-4-222-2------|I
E--555-5-000-0-222-2-000-0--555-5-000-0-222-2-000-0------|I
(2x)
               A9                E
Why can't you see, that there is me
                  F#m9           E
Whose waiting for you, all this time
             A9               E
Why can't it be, just you and me
                      F#m9            E
I've been waiting for you, all this time

e-------------------------|I
b-------------------------|I
g--77-77-77-77-9(hold)----|I
d--77-77-77-77-9(hold)----|I
a--55-55-55-55-7(hold)----|I
E-------------------------|I
         D          E(hold)
I waited true to you
                    (Drums)
If you'll only let me

A-E-F#m9
I just walked right through there
I saw you talking on the phone
A-E-F#m9-E
And I heard you saying all the words
That I've been longing for
A9-E-F#m-E
How I wish that I'm the girl
On the other line
A9-E-F#m-E
How could it be, how could it be
I know you can't be mine

ref:

e----------------------------------------------------------------|I
b----------------------------------------------------------------|I
g--77777777--99999999--77777777--99999999--77777777--99999999----|I
d--77777777--99999999--77777777--99999999--77777777--99999999----|I
a--55555555--77777777--55555555--77777777--55555555--77777777----|I
E----------------------------------------------------------------|I

e----------------------------------------|I
b----------------------------------------|I
g--77777777--99-1111-1313-1414(hold)-----|I
d--77777777--99-1111-1313-1414(hold)-----|I
a--55555555--77--9-9-1111-1212(hold)-----|I
E----------------------------------------|I

D               E               D
 (no matter how hard I try) to forget you
D               E                          D
 (no matter how hard I try) but its still you
D               E                    D
 (no matter how hard I try) I can't fake it
                           E F#m G#m A....
 I can't fake it cause I can't

Chorus:
              A9                E
Why can't you see, that there is me
                  F#m9           E
Whose waiting for you, all this time
             A9               E
Why can't it be, just you and me
                      F#m9            E
I've been waiting for you, all this time
         D          E(hold)
I waited true to you
                    F#m
If you'll only let me

bridge:

base:

---------------------------------------------|I
---------------------------------------------|I
----------------------11111111---------------|I
---22222222--00000000----------00000000------|I
(4x)

F#m              E                      A9            E
 How can you see me when you're blinded by that girl (by that girl)
F#m              E                A9               E
 I'll be just a shadow following you right on the wall (on the wall)

e----------I-----------|I
b----------I-----------|I
g--2\1-2\1~I--44444----|I
d----------I--22222----|I
a----------I-----------|I
E----------I-----------|I
............  way....

mr_rain: ~ here, means continue doing the tab until the last word on bridge, which is 
"way"....timing lang po...

F#m             E                                A9         E
 I don't wanna wake up crazy one day cause your driving me insane
F#m             E                A9                        E....
 For what can I do your the only one who make me feel this way

[CHORUS]
Chorus:
              A9                E
Why can't you see, that there is me
                  F#m9           E
Whose waiting for you, all this time
             A9               E
Why can't it be, just you and me
                      F#m9            E
I've been waiting for you, all this time
          A9-E-F#m9-E
Why can't you see me (why can't you, why can't you)
Why can't you see me, oh (why can't you, why can't you)
          A9-E-F#m9-E
Why can't you see me (why can't you, why can't you)
Why can't you see me, oh (why can't you, why can't you)
A9(hold)
Why can't you
            
Submit corrections

↑ Back to top | Tablatures and chords for acoustic guitar and electric guitar, ukulele, drums are parodies/interpretations of the original songs. You may use it for private study, scholarship, research or language learning purposes only