» » »

Yeng Constantino - Ikaw Tabs

Artists:  A B C D E F G H I J K L M N O P Q R S T U V W X Y Z # 

Ikaw Tabs

(ver. 2) Click to play this song!
Yeng Constantino
 Rating:
2.8/5 (20 votes)

 Ikaw lessons Tabs too difficult? Try these video lessons and learn fast
 
                Intro: F Am Dm  Bb


verse 1:

E|-----------------------------3--1--------------|
B|-----------1--------------1--------------------|
G|--2--2--2-----------2--2-----------2--4--------|
D|-----------------3--------------------------6--|
A|--------------3--------------------------6-----|
E|-----------1--------------------------4--------|
                               Gm
Sa pagpatak, ng bawat oras ay ikaw


E|--------------------------|
B|--------6--5-----------2--|
G|--3--3-----------2--------|
D|--------------5-----2-----|
A|-----------------0--------|
E|--------------------------|
                 Am
Ang iniisip-isip ko


E|--------------0--------------------|
B|-----------1-----3-----------------|
G|--2--2--2--------------0--2--3--5--|
D|--------------------3-----2--------|
A|-----------------------1-----1--3--|
E|-----------------------------------|
               Dm         Bb Am Bb C
Hindi ko ma hinto ang pintig ng puso


E|-----------------------3--1--------------|
B|-----1--------------1--------------------|
G|--2-----------2--2-----------2--4--------|
D|-----------3--------------------------6--|
A|--------3--------------------------6-----|
E|-----1--------------------------4--------|
  F                         Gm
Ikaw, ang pinangarap-ngarap ko


E|--------------------------|
B|--------6--5-----------2--|
G|--3--3-----------2--------|
D|--------------5-----2-----|
A|-----------------0--------|
E|--------------------------|
                  Am
Simula noong matanto

E|--------------0-----------------------|
B|-----------1-----3--------------------|
G|--2--2--2-----------------0--2--3--5--|
D|--------------------3--3-----2--------|
A|--------------------------1-----1--3--|
E|--------------------------------------|
           Dm    Bb  Am  Bb C
Na balang araw iibig ang puso


Chorus:

E|-----5--------5--5--6--6--5-----------------|
B|-----6-----6-----------------8--6--8-----8--|
G|--5--5--5-----------------------------5-----|
D|-----7--------------------------------------|
A|-----------------------------------0--------|
E|--------------------------------------------|
 F                       Am
Ikaw,ang pagibig na hinintay


E|-----5--5-----------5--------------|
B|--8--------8--6--5--6-----6-----6--|
G|--------------------7--7-----7-----|
D|--------------------0--------------|
A|-----------------------------------|
E|-----------------------------------|
              Dm
Puso ay na lumbay nang kay tagal


E|-----------1-----1--5--5--5--3-----8--|
B|-----6--------3-----------------6-----|
G|--7-----7-----------------------------|
D|--------------------------------------|
A|-----------1-----------3--------------|
E|--------------------------------------|
           Bb          C
Ngunit ngayo'y nandito na ikaw


E|--5--------5--5--6--6--5-----------------|
B|--6-----6-----------------8--6--8-----8--|
G|--5--5-----------------------------5-----|
D|--7--------------------------------------|
A|--------------------------------0--------|
E|-----------------------------------------|
 F                        Am
Ikaw, ang pag-ibig na binigay


E|-----5--5-----------5--|
B|--8--------8--6--5--6--|
G|--------------------7--|
D|--------------------0--|
A|-----------------------|
E|-----------------------|
                 Dm
Sa akin ng may kapal

E|-----------------------1--|
B|-----6-----6-----6--------|
G|--7-----7-----7-----7-----|
D|--------------------------|
A|-----------------------1--|
E|--------------------------|
             Bb
Biyaya ka sa buhay ko


E|-----1--1--3--5--5--3--------1--|
B|--3--------------------6--5--1--|
G|--------------------------------|
D|--------------------------------|
A|--------------3--------------3--|
E|-----------------------------1--|
               C         F
Ligaya't pag-ibig ko'y ikaw


F-Bb-F-Bb


E|-----1-----1-----1-----------------------------|
B|-----1-----1-----1-----3-----3-----3-----3-----|
G|--2-----2-----2-----2--3--3--3--3--3--3--3--3--|
D|-----------------------------------------------|
A|-----------------------1-----------------------|
E|-----------------------------------------------|

E|--1-----1-----1-----1--------------------------|
B|--1-----1-----1-----1-----3-----3-----3-----3--|
G|-----2-----2-----2-----2--3--3--3--3--3--3--3--|
D|-----------------------------------------------|
A|--3-----------------------1--------------------|
E|--1--------------------------------------------|

(FOLLOW SAME TAB AS VERSE 1 and CHORUS)


Verse 2:

       F                       Gm
Humihinto, sa bawat oras ng tagpo
                  Am
Ang pagikot ng mundo
            Dm     Bb Am Bb C
Ngumingiti ng kusa aking puso

    F                     Gm
Pagkat, na sagot na ang tanong
           Am                Dm
Nagaalala noon pag may magmamahal
   Bb Am Bb C
Sakin ng tunay


Chorus:
  F                      Am
Ikaw,ang pagibig na hinintay
              Dm
Puso ay na lumbay nang kay tagal
           Bb          C
Ngunit ngayo'y nandito na ikaw
  F                       Am
Ikaw, ang pag-ibig na binigay
                 Dm
Sa akin ng may kapal
                   Bb
Biyaya ka sa buhay ko
             C          F
Ligaya't pag-ibig ko'y ikaw


Bridge:

E|--1--3--5-----------5--6--5--------|
B|-----------8-----8-----------6-----|
G|--------------5-----------------7--|
D|-----------------------0-----------|
A|--------0--------------------------|
E|-----------------------------------|
     Am          Dm
At hindi pa, ko umibig


E|--------5-----------5--6--5--------|
B|--6--8-----8-----8-----------6-----|
G|--------------5-----------------7--|
D|-----------------------0-----------|
A|--------0--------------------------|
E|-----------------------------------|
      Am         Dm
Ng gan'to at nasaisip


E|-----5--6--5-----------5--3-----------3--|
B|--8-----------8--6--------------5--------|
G|--------------------7--------5-----5-----|
D|-----------------------------------------|
A|--------------------------3--------------|
E|--------6--------------------------------|
     Bb                  C
Magkasama ka ng habang buhay


Chorus:


E|--4--8---------8--8--9--9--8--------------------|
B|-----9------9-----------------11--9--11-----11--|
G|-----8---8-------------------------------8------|
D|-----10------------------------------10---------|
A|------------------------------------------------|
E|------------------------------------------------|
 Ab                      Cm
Ikaw,ang pagibig na hinintay

E|------8--8------------8-----------------|
B|--11--------11--9--8--9-------9------9--|
G|----------------------10--10-----10-----|
D|----------------------10----------------|
A|----------------------------------------|
E|----------------------------------------|
              Fm
Puso ay na lumbay nang kay tagal


E|-------------4-----4--6--8--8--6-----|
B|------9---------6-----------------9--|
G|--10-----10--------------------------|
D|-------------------------------------|
A|-------------4-----------6-----------|
E|-------------------------------------|
           C#          Eb
Ngunit ngayo'y nandito na ikaw


E|--11--8---------8--8--9--9--8--------------------|
B|------9------9-----------------11--9--11-----11--|
G|------8---8-------------------------------8------|
D|------10------------------------------10---------|
A|-------------------------------------------------|
E|-------------------------------------------------|
 Ab                       Cm
Ikaw, ang pag-ibig na binigay


E|------8--8------------8-----------------|
B|--11--------11--9--8--9-------9------9--|
G|----------------------10--10-----10-----|
D|----------------------10----------------|
A|----------------------------------------|
E|----------------------------------------|
                 Fm
Sa akin ng may kapal,  Biyaya ka sa buhay ko


E|-------------4-----4--6--8--8--6--------4--|
B|------9---------6-----------------9--8-----|
G|--10-----10--------------------------------|
D|-------------------------------------------|
A|-------------4-----------6-----------------|
E|----------------------------------------4--|
             C#    Eb        Ab
Ligaya't pag-ibig ko'y ikaw


(Repeat Chorus)

Ab Cm Fm C#

E|--4--6--8--8--6--4--3--4--------------4--4--|
B|-----------------------------------4-----4--|
G|--------------------------------5--------5--|
D|-----------------------------6-----------6--|
A|--------------------------6--------------6--|
E|-----------------------4-----------------4--|
               Ab  -[End]-
Pagibig Ko'y Ikaw....            
Submit corrections


        Ikaw lessons Hard to play? Try these video lessons and learn fast Ikaw lessons
        
↑ Back to top | Tablatures and chords for acoustic guitar and electric guitar, ukulele, drums are parodies/interpretations of the original songs. You may use it for private study, scholarship, research or language learning purposes only