» » »

Yeng Constantino - Ikaw Tabs

Artists:  A B C D E F G H I J K L M N O P Q R S T U V W X Y Z # 

Ikaw Tabs

(ver. 1) Click to play this song!
Yeng Constantino
 Rating:
3.2/5 (21 vote)

 Ikaw lessons Tabs too difficult? Try these video lessons and learn fast
 
                Tuning: eBGDAE

Intro:

e|-8-----8-----8-----8-----12------12-----12-----12-----13------13--13--13--10--10--10--10--------|
B|-6-----6-----6-----6-----10-10---10-----10-----10-----10------10--10--10--11--11--11--11--------|
G|-5--5-----5-----5-----5--9----9------9------9------9--10--10--10--10--10--10--10--10--10--------|
D|------------------------------------------------------------------------------------------------|
A|------------------------------------------------------------------------------------------------|
E|------------------------------------------------------------------------------------------------|

verse 1

e|-8--8--8--8--8--8--8--8--8--8--8--8--8--8--8--8--|| 2x
B|-6--6--6--6--6--6--6--6--------------6--6--6--6--||
G|-5--5--5--5--7--7--7--7--5--5--5--5--------------||
D|-------------------------7--7--7--7--8--8--8--8--||
A|-------------------------------------------------||
E|--------------------------------------------- ---||

patak...


chorus

e|-17------17------17------17------15------15------15------15------17------17------17------17------|
B|-18------18------18------18------17------17------17------17------15------15------15------15------|
G|-----17------17------17------17------17------17------17------17--14--14------14------14------14--|
D|-------------------------------------------------------------------------------------------------|
A|-------------------------------------------------------------------------------------------------|
E|-------------------------------------------------------------------------------------------------|


e|-10------10------10------10------10--|| 2x
B|-11------11------11------11------11--||
G|-10--10------10------10------10------||
D|-------------------------------------||
A|-------------------------------------||
E|-------------------------------------||

         ligayat       pagibig      ko'y 


e|-8-------8-------12------12------10------10------10------10--|| 2x    to stanza
B|-------------------------------------------------------------||
G|-10--10--10--10--10--10--10--10--10--10--10--10--10--10--10--||
D|-10------10------10------10------10------10------10------10--||
A|-------------------------------------------------------------||
E|-------------------------------------------------------------||            
Submit corrections


        Ikaw lessons Hard to play? Try these video lessons and learn fast Ikaw lessons
        
↑ Back to top | Tablatures and chords for acoustic guitar and electric guitar, ukulele, drums are parodies/interpretations of the original songs. You may use it for private study, scholarship, research or language learning purposes only