Home » X » XXXTENTACION »

XXXTENTACION - The Remedy For A Broken Heart Why Am I So In Love Tabs

Artists:  A B C D E F G H I J K L M N O P Q R S T U V W X Y Z # 

The Remedy For A Broken Heart Why Am I So In Love Tabs

(ver. 2) Click to play this song!
XXXTENTACION
[Intro]
e#|--0----0----0----0----0----0----------------------------------------------------|
C |--1----0----1----0----1----0-----1-------------0-------0-------0-------0--------|
G#|--2----0----2----0----2----0-----0----------2-------2-------2-------2-----------|   
D#|--2----1----2----1----2----1----------------------------------------------------|
A#|--0----1----0----1----0----1----------------------------------------------------|   
E |-------1---------1---------1-----1----------2-------2-------2-------2-----------|

[Rest of the song] 
e#|--------x------------------x----------------------------------------------------|
C |-----1--x-----1-------0----x-----1-------------0-------0-------0-------0--------|
G#|-----2--x-----3-------0----x-----0---------2-------2-------2-------2------------|
D#|--------x------------------x----------------------------------------------------|   x14
A#|--------x------------------x----------------------------------------------------|  
E |-----0--x----0--------1----x----1----------2-------2-------2-------2------------|

[Outro] 
e#|--0----0----0----0----0----0----------------------------------------------------|
C |--1----0----1----0----1----0-----1-------------0-------0-------0-------0--------|
G#|--2----0----2----0----2----0-----0---------2-------2-------2-------2------------|   x2
D#|--2----1----2----1----2----1----------------------------------------------------|
A#|--0----1----0----1----0----1----------------------------------------------------|   
E |-------1---------1---------1-----1---------2-------2-------2-------2------------|

            
Submit corrections

↑ Back to top | Tablatures and chords for acoustic guitar and electric guitar, ukulele, drums are parodies/interpretations of the original songs. You may use it for private study, scholarship, research or language learning purposes only