Home » X » XXXTENTACION »

XXXTENTACION - The Remedy For A Broken Heart Why Am I So In Love Tabs

Artists:  A B C D E F G H I J K L M N O P Q R S T U V W X Y Z # 

The Remedy For A Broken Heart Why Am I So In Love Tabs

(ver. 1) Click to play this song!
XXXTENTACION
[Intro]

e|-----------------------------------------------------------------------|
B|-2--------1--------2--------1--------2--------1----------1---1---1---1-|
G|-3--------1--------3--------1--------3--------1--------3---3---3---3---|
D|-----------------------------------------------------------------------|
A|-----------------------------------------------------------------------|
E|-2--------1--------2--------1--------2--------1--------2---2---2---2---|


[Verse]

e|------x--------x--------------------|
B|-2----x-4-1----x-2---1---1---1---1--|
G|-3----x---1----x---3---3---3---3----|
D|------x--------x--------------------|
A|------x--------x--------------------|
E|-2----x---1----x---2---2---2---2----|


[Outro]

e|-----------------------------------------------------------------------|
B|-2--------1--------2--------1--------2--------1----------1---1---1---1-|
G|-3--------1--------3--------1--------3--------1--------3---3---3---3---|   x2
D|-----------------------------------------------------------------------|
A|-----------------------------------------------------------------------|
E|-2--------1--------2--------1--------2--------1--------2---2---2---2---|

            
Submit corrections

↑ Back to top | Tablatures and chords for acoustic guitar and electric guitar, ukulele, drums are parodies/interpretations of the original songs. You may use it for private study, scholarship, research or language learning purposes only