Home » W » Wintersun »

Wintersun - Death And The Healing Tabs

Artists:  A B C D E F G H I J K L M N O P Q R S T U V W X Y Z # 

Death And The Healing Tabs

(ver. 2) Click to play this song!
Wintersun
Ok all ive gotten is where after he finishes singing
"Time is the death and the healing
Take your last breath, 'cause death is deceiving
Time is the past, now and tomorrow
Days fly so fast and it leaves me so hollow."
Sorry i don't have to much tho :(
Tuning: EADGBe

e|-------------------------------------------------|
B|-------------------------------------------------|
G|-5-7-5-7-8-10-12-10-11b---8-8-7-3-5-5-7-8-7-5-3-5|
D|-------------------------------------------------|
A|-------------------------------------------------|
E|-------------------------------------------------|
just listen to that bit of the song to get the speed :)

e|-------------------7-9-7-----------------|-------------------7-9s11-9-7-9|
B|-11-10-11-10-8---8-------9s11-9-7-9-7-6--|-11-10-11-10-8---8-------------|
G|---------------7-------------------------|---------------7---------------|
D|-----------------------------------------|-------------------------------|
A|-----------------------------------------|-------------------------------|
E|-----------------------------------------|-------------------------------|

e|---------------------10-12-10-------------------|
B|-14-13-14-13-11---11----------12s14-12-10-12s14-|
G|----------------10------------------------------|
D|------------------------------------------------|
A|------------------------------------------------|
E|------------------------------------------------|

e|---------------------10-12s14-12-10-12-|
B|-14-13-14-13-11---11-------------------|
G|----------------10---------------------|
D|---------------------------------------|
A|---------------------------------------|
E|---------------------------------------|
This bit may sound a bit odd if playing with the recording but they are using 
to make a different sound :D.

Well thats all i got...wait until i can figure out some more :)
            
Submit corrections

↑ Back to top | Tablatures and chords for acoustic guitar and electric guitar, ukulele, drums are parodies/interpretations of the original songs. You may use it for private study, scholarship, research or language learning purposes only