Home » W » Wintersun »

Wintersun - Death And The Healing Tabs

Artists:  A B C D E F G H I J K L M N O P Q R S T U V W X Y Z # 

Death And The Healing Tabs

(ver. 3) Click to play this song!
Wintersun
Well, because i can't use the GP- Tabs ( have to buy the 5.0- Version) I've decided to 
ya'll my Version of this great song!!!^^ maybe its right :p

Intro/Riff 1
|--------------------------------------------------------------------------|
|-------------------10------------------10---10--12--10---10---10--12------|
|----12--11--9---11----12--11--9-----------9-----------------9--------10~--|
|--------------9-----------------9-----------------------------------------|
|----------------------------------10~-------------------------------------|
|--------------------------------------------------------------------------|
  ( Repeat until next Melodie starts)
Intro (again)/ Riff 2
|---------------------------------------------|
|------------------------------10-------------|
|-12--11--9---------12--11--12----12--11------|
| ----------9--12~-----------------------9~---|
|---------------------------------------------|
|---------------------------------------------|

|---------------------------------------------|
|------------------------------10--12--10-----|
|-12--11--9---------12--11--12-----------11---|
|-----------9--12~----------------------------|
|---------------------------------------------|
|---------------------------------------------|

Vers1:
The Vers is just the first riff, but played 2 frets higher.

|--------------------------------------------------------------------------|
|-------------------12------------------12----12--14--12---12----12--14----|
|----14--13--11---13----14--13--10------- -11-----------------11--------12~|
|---------------11-----------------11--------------------------------------|
|-------------------------------------12~----------------------------------|
|--------------------------------------------------------------------------|

After that play Riff 2 again...

so, till this part of the song I've know the tabs, but after that, well, u know, Jari 
again so great that I can't figure out the tabs^^

After that part the Chorus follows, played with Riff 2.
After played Riff 2, do it once again, but now 2 frets higher.

|---------------------------------------------|
|------------------------------10-------------|
|-12--11--9---------12--11--12----12--11------|
| ----------9--12~-----------------------9~---|
|---------------------------------------------|
|---------------------------------------------|

|---------------------------------------------|
|------------------------------10--12--10-----|
|-12--11--9---------12--11--12-----------11---|
|-----------9--12~----------------------------|
|---------------------------------------------|
|---------------------------------------------|

|----------------------------------------------|
|-------------------------------12-------------|
|-14--13--11---------14--13--14----14--13------|
| -----------11--14~-----------------------11~-|
|----------------------------------------------|
|----------------------------------------------|

|---------------------------------------------|
|-------------------------------12--14--12----|
|-14--13--11---------14--13--14-------------13|
|------------11--14~--------------------------|
|---------------------------------------------|
|---------------------------------------------|

my fault, please play everything 1 fret higher ;-)
or just get guitar pro^^
            
Submit corrections

↑ Back to top | Tablatures and chords for acoustic guitar and electric guitar, ukulele, drums are parodies/interpretations of the original songs. You may use it for private study, scholarship, research or language learning purposes only