Home » W » William Fitzsimmons »

William Fitzsimmons - Theyll Never Take The Good Years Tabs

Artists:  A B C D E F G H I J K L M N O P Q R S T U V W X Y Z # 

Theyll Never Take The Good Years Tabs

(ver. 1) Click to play this song!
William Fitzsimmons
Tuning: standart
capo : no capo

VERSE :
  Fadd9                     C
e|--3-------1-----0--------|-----------------0--------|
B|-----1-------1-----1-----|--1--------3--------1-----|
G|--------2-------------2--|-----0--------0--------0--|
D|--3----------------------|--------2-----------------|
A|-------------------------|--3-----------------------|
E|-------------------------|--------------------------|

  G                        Am
e|--3--------1-----0-------|-----------------0--------||
B|-----0--------0-----0----|--1--------3--------1-----||
G|--------0--------------0-|-----2--------2--------2--||
D|-------------------------|--------2-----------------||
A|-------------------------|--0-----------------------||
E|--3----------------------|--------------------------||

CHORUS :
  G
e|----------------------------------------------------||
B|--3--------3--------3-----1--------0-----1----------||
G|-----0--------0--------0-----0--------0-----0-------||
D|--------0--------0--------------0--------------0----||
A|----------------------------------------------------||
E|--3-------------------------------------------------||
            
Submit corrections

↑ Back to top | Tablatures and chords for acoustic guitar and electric guitar, ukulele, drums are parodies/interpretations of the original songs. You may use it for private study, scholarship, research or language learning purposes only