» » »

William Fitzsimmons - By My Side Tabs

Artists:  A B C D E F G H I J K L M N O P Q R S T U V W X Y Z # 

By My Side Tabs

(ver. 1) Click to play this song!
William Fitzsimmons
 Rating:
4.3/5 (21 vote)

 By My Side  lessons Tabs too difficult? Try these video lessons and learn fast
 
                D--------0--------------------------------------|
A------0---0------0------------0----------------|
F#--------------0---0--------1---1--------------|
D---------------------0-------------------2p0-0-| repeat
A------------0------------2---------0h2h4-------|
D--0--------------------------------------------|

D---------------0--------------------------------|--------------0-----------------0----|
A-------0-----------0----------0-----------------|-------0---------0--------0-------0--|
F#-----------0---------0-----1---1---------------|---5-------------------1-------------|
D------------------------------------------2p0-0-|-----------0-----------------0-------|
A-------------------------2----------0h2h4-------|-------------------------------------|
D--0---------------------------------------------|---5-------------------2-------------|            
Submit corrections


        By My Side  lessons Hard to play? Try these video lessons and learn fast By My Side  lessons
        
↑ Back to top | Tablatures and chords for acoustic guitar and electric guitar, ukulele, drums are parodies/interpretations of the original songs. You may use it for private study, scholarship, research or language learning purposes only