Home » W » Wilco »

Wilco - Random Name Generator Chords

Artists:  A B C D E F G H I J K L M N O P Q R S T U V W X Y Z # 

Random Name Generator Chords

(ver. 1) Click to play this song!
Wilco
riff 1
e|-------------------------------------------------------|
B|-------------------------------------------------------|
G|-------------------------------------------------------|
D|--------11-11---------11-11-------11-11---------11-11--|
A|--7-8-9-7--7--7-8-9-7-7--7--7-8-9-7--7--7-8-9-7-7--7---|
E|--7-7-7-7--7--7-7-7-7-7--7--7-7-7-7--7--7-7-7-7-7--7---|

e|-----------------------------------------------|
B|-----------------------------------------------|
G|-----------------------------------------------|
D|--------9-9---------9-9-------9-9---------9-9--|
A|--5-6-7-5-5-5-6-7-5-5-5-5-6-7-5-5-5-6-7-5-5-5--|
E|--5-5-5-5-5-5-5-5-5-5-5-5-5-5-5-5-5-5-5-5-5-5--|

riff 1 x2

A5
Come on, listen to the wheel this way, I belong to the stars in the day
G5
I ran away, eternal instigator, well, I was old
A5
I remember the Milky Way, why? I belong to the stars in the sky
G5
Random name, random name generator, random name generator, random name generator

Ano5add2   Gno5add2

riff 1

A5
Here, lonely in the coldest night, somebody hold me in the diamond light
G5
A narrator, Mr. Narrator
A5
I want a name and a newborn child, a miracle only ever grows wild
G5
It is a book instigator, a random name generator
A5
I kinda like it when I make you cry, a miracle only once in a while
G5
A random name, random name generator
A5
I change my name every once in a while, a miracle every once in a while
G5
I create, I am a flame, a flame creator, a random name generator

riff 1

A5                                                                                  G5
Come on, cuff me to the weed with some wine, if I miss your breeze or you miss mine
A5                                                                   G5
I kinda like it when I make you cry, a miracle every once in a while
A5                                                                            G5
Come on, cuff me to the weed with some wine, I think I miss my family I found

A5   G5 x3

riff 1            
Submit corrections

↑ Back to top | Tablatures and chords for acoustic guitar and electric guitar, ukulele, drums are parodies/interpretations of the original songs. You may use it for private study, scholarship, research or language learning purposes only