» » »

Wilco - Random Name Generator Tabs

Artists:  A B C D E F G H I J K L M N O P Q R S T U V W X Y Z # 

Random Name Generator Tabs

(ver. 1) Click to play this song!
Wilco
 Rating:
3.1/5 (28 votes)

 Random Name Generator  lessons Tabs too difficult? Try these video lessons and learn fast
 
                Tuning: Standard

Main Riff (alternate note in parentheses):

e|---------------------------------------------------------------------------|
B|------------(2)--(2~)------------------(2)---(2~)--------------------------|
G|-------------6----6~\-------------------6-----6~\--------------------------|
D|--2--3--4----------------2--3--4--2----------------------------------------|
A|---------------------------------------------------------------------------|
E|---------------------------------------------------------------------------|

e|---------------------------------------------------------------------------|
B|------------(0)--(0)--------------------(0)---(0)--------------------------|
G|-------------4----4~\--------------------4-----4~\-------------------------|
D|--0--1--2----------------0--1--2--0----------------------------------------|
A|---------------------------------------------------------------------------|
E|---------------------------------------------------------------------------|


Rhythm Chords (strummed throughout the song):

      A         G
e|---------------------------------------------------------------------------|
B|---------------------------------------------------------------------------|
G|----2----------------------------------------------------------------------|
D|----2---------5------------------------------------------------------------|
A|----0---------5------------------------------------------------------------|
E|--------------3------------------------------------------------------------|


Outro Riff:

e|--5------2--0-----0---2---5-----2------------------------------------------|
B|---------------------------------------------------------------------------|
G|---------------------------------------------------------------------------|
D|---------------------------------------------------------------------------|
A|---------------------------------------------------------------------------|
E|---------------------------------------------------------------------------|
            
Submit corrections


        Random Name Generator  lessons Hard to play? Try these video lessons and learn fast Random Name Generator  lessons
        
↑ Back to top | Tablatures and chords for acoustic guitar and electric guitar, ukulele, drums are parodies/interpretations of the original songs. You may use it for private study, scholarship, research or language learning purposes only