» » »

Wilco - Passenger Side Tabs

Artists:  A B C D E F G H I J K L M N O P Q R S T U V W X Y Z # 

Passenger Side Tabs

(ver. 2) Click to play this song!
Wilco
 Rating:
2.3/5 (26 votes)

 Passenger Side lessons Tabs too difficult? Try these video lessons and learn fast
 
                e|---------------------------------------------------------------------------|
B|---------------------------------------------------------------------------|
G|---------------------5----5------5-----------------------------------------|
D|-5-----5---5----5------------------7---5-----------------------------------|
A|---------------------------------------------------------------------------|
E|---------------------------------------------------------------------------|

   Hey, wake up, your eyes weren't open wide

e|---------------------------------------------------------------------------|
B|---------------------------------------------------------------------------|
G|--5-------5---5-5--------5------------5----5-------------------------------|
D|------7--------------7---------7--------------7----------7-------5---------|
A|----------------------------------------------------7--------7-------------|
E|---------------------------------------------------------------------------|

   For the last couple of miles you've been swerving from side to side

e|---------------------------------------------------------------------------|
B|-----------------------------------------------5---------------------------|
G|---------5-----5---5---5----5---7-----(5)--7----------7---5-------5--------|
D|---7-------7----------------(7)-------------------------------7------------|
A|---------------------------------------------------------------------------|
E|---------------------------------------------------------------------------|

   You're gonna make me spill my beer,   if you don't learn how to steer

e|---------------------------------------------------------------------------|
B|---------------------------5-----5-----------------------------------------|
G|--5---5----5------5---5------7-------7-5-----------------------------------|
D|----7--------7------7--------------------7---------------------------------|
A|---------------------------------------------------------------------------|
E|---------------------------------------------------------------------------|

   Passenger side, passenger side, ah - iide

e|---------------------------------------------------------------------------|
B|----------5-------------5--------------------------------------------------|
G|(5)-7----------7-5---7-------7-5-------5-----------------------------------|
D|---------------------------------7-----------------------------------------|
A|---------------------------------------------------------------------------|
E|---------------------------------------------------------------------------|

   I don't like riding on the passenger side

e|---------------------------------------------------------------------------|
B|---------------------------------------------------------------------------|
G|---------------5-5----5----------------------------------------------------|
D|--5----5--7-------------------5--------------------------------------------|
A|--------------------------7------------------------------------------------|
E|---------------------------------------------------------------------------|

   Roll another number for the road

e|---------------------------------------------------------------------------|
B|---------------------------------------------------------------------------|
G|---5----5---5-----5-----5--------------------------------------------------|
D|--------------7-----5-----5---7--5-----------------------------------------|
A|---------------------------------------------------------------------------|
E|---------------------------------------------------------------------------|

   You're the only sober person I know

e|---------------------------------------------------------------------------|
B|-----------------------------------------------5---------------------------|
G|---5--------5--5---5---5------7--------5---7-----7-5-------5---------------|
D|-------7-------------------7---------------------------7-------------------|
A|---------------------------------------------------------------------------|
E|---------------------------------------------------------------------------|

   Won't you let me make you a deal,    just get behind the wheel

e|---------------------------------------------------------------------------|
B|---------------------------5-----5-----------------------------------------|
G|--5---5----5-7-----5---5------7-------7-5----------------------------------|
D|----7----------------7--------------------7--------------------------------|
A|---------------------------------------------------------------------------|
E|---------------------------------------------------------------------------|

   Passenger side, passenger side, ah - iide

e|---------------------------------------------------------------------------|
B|----------5-------------5--------------------------------------------------|
G|(5)-7----------7-5---7-------7-5-------5-----------------------------------|
D|---------------------------------7-----------------------------------------|
A|---------------------------------------------------------------------------|
E|---------------------------------------------------------------------------|

   I don't like riding on the passenger side

e|---------------------------------------------------------------------------|
B|---------------------------------------------------------------------------|
G|---5-------5----5----5--------4-2-----4----5--4----------------------------|
D|-----7-----------------7---------------------------------------------------|
A|---------------------------------------------------------------------------|
E|---------------------------------------------------------------------------|

   Should've been the driver, could've been the one

e|---------------------------------------------------------------------------|
B|(5)--5--5-----6----5-------------------------------------------------------|
G|------------------------7-5----5-----5-5----5------------------------------|
D|----------------------------------7----------------------------------------|
A|---------------------------------------------------------------------------|
E|---------------------------------------------------------------------------|

   I should've been your lover, but I hadn't seen...


(etc.)
            
Submit corrections


        Passenger Side lessons Hard to play? Try these video lessons and learn fast Passenger Side lessons
        
↑ Back to top | Tablatures and chords for acoustic guitar and electric guitar, ukulele, drums are parodies/interpretations of the original songs. You may use it for private study, scholarship, research or language learning purposes only