» » »

Wilco - Lonely One Tabs

Artists:  A B C D E F G H I J K L M N O P Q R S T U V W X Y Z # 

Lonely One Tabs

(ver. 2) Click to play this song!
Wilco
 Rating:
4/5 (4 votes)

 Lonely One lessons Tabs too difficult? Try these video lessons and learn fast
 
                --------------------------------------------------------------------
                        The Lonely 1 - Wilco
--------------------------------------------------------------------


Standard tuning (EADGBe)
Capo 5th fret

e|-3-2----|-----0--|-----0--|-----0----|
B|-0-0----|-3-0---0|-1-0---0|-3-0------|
G|--------|-0-0--0-|-0-0--0-|-2-2-----0|
D|--------|--------|--------|------0h2-|
A|--------|--------|3-------|----------|
E|3-------|--------|--------|----------| x4

After the show you walked right past
Arms reached out for your autograph...



e|3--3--3--3--3--3-3--3--3--3--3---|
B|-3--3--3--3--3----3--3-----3--3--|
G|--0--0--0--0--0----0--0-----0--0-|
D|---------------------------------|
A|----------------3----------------|
E|3--------------------------------| x2
     G                C/G

And you, you were the lonely one
You were the lonely one...


The above verse repeats towards the end, however, 
the guitarist begins to strum whole chords provided 
below. You can listen to the song to get the hang of it.

e|-3-------3----o-|
B|o/3-----1/3---1-|
G|-o-------o----o-|
D|-o-------2-or-2-|
A|-2-------3----3-|
E|-3-------x----3-|

   G         C/G 


Full Lyrics

After the show you walked right past
Arms reached out for your autograph
And as you flashed your backstage pass
I caught your eye with a camera's flash
When the band came out they stood behind you
Cymbals crashed, the lights went blue
You stood alone in the halo's haze
Shinny guitar hung on gold lamay

And you, you were the lonely one
You were the lonely one

When you perform it's so intense
When the critics pan I write in your defense
I understand I'm just a fan, I'm just a fan
When I get home I turn off the alarm
I've checked the phone, no messages on
I play the ones from yesterday
I play you're song just to hear you say that..

You, you're the lonely one
You are the lonely one
You, you're the lonely one
You are the lonely one. 
            
Submit corrections


        Lonely One lessons Hard to play? Try these video lessons and learn fast Lonely One lessons
        
↑ Back to top | Tablatures and chords for acoustic guitar and electric guitar, ukulele, drums are parodies/interpretations of the original songs. You may use it for private study, scholarship, research or language learning purposes only