» » »

Wilco - Impossible Germany Tabs

Artists:  A B C D E F G H I J K L M N O P Q R S T U V W X Y Z # 

Impossible Germany Tabs

(ver. 2) Click to play this song!
Wilco
 Rating:
4/5 (4 votes)

 Impossible Germany lessons Tabs too difficult? Try these video lessons and learn fast
 
                This is the solo from 2:45 to 4:07, before the mood of the solo changes and the two 
guitar parts enter.

E|----------------------------------------------------------------|
B|--10h12~~~~~~~~----15p12~~~~~s8~~~~~~---------------------------|
G|------------------------------------------------4h5h4~~~~~~~----|
D|----------------------------------------------------------------|
A|----------------------------------------------------------------|
E|----------------------------------------------------------------|

E|-------------------------10-7h10s12~~~~~~~---------15h19~~~~~---|
B|-------10h12~~~~~~----------------------------------------------|
G|----------------------------------------------------------------|
D|----------------------------------------------------------------|
A|----------------------------------------------------------------|
E|----------------------------------------------------------------|

E|----------------------------------------------------------------|
B|------19p17p15--------------------------------------------------|
G|--------------16b(17)b16~~~~~~-----------4b(5)b4~~~~~~----------|
D|----------------------------------------------------------------|
A|----------------------------------------------------------------|
E|----------------------------------------------------------------|

E|--------------------2----3---------6s7~~~~~~~-------------------|
B|----------2--0--2---0----0---------3s4~~~~~~~---10p8------------|
G|----------0--0--0-----------------------------------9~~-9s------|
D|--------------------0----2--------------------------------------|
A|----------------------------------------------------------------|
E|----------------------------------------------------------------|

E|------------------------7-----------------10-7------------------|
B|--------------------------8--------------------8~~~~~~~~~~------|
G|----------------------------9~~~~~~~~~--------------------------|
D|----------------------------------------------------------------|
A|----------------------------------------------------------------|
E|----------------------------------------------------------------|

E|----10---7h10p7-------------10--7h10p7--------------------------|
B|----------------8~~~~~~~~--------------8~~~~--------------------|
G|----------------------------------------------------------------|
D|----------------------------------------------------------------|
A|----------------------------------------------------------------|
E|----------------------------------------------------------------|

E|--------12---8h12p8---------------------------------------------|
B|--------------------10~~~~~-----------7h8p7---------------------|
G|----------------------------------5-9-------9-7-----------------|
D|--------------------------------7---------------9-7-5-5---------|
A|---------------------------------------------------------7------|
E|----------------------------------------------------------------|

E|----------------------------------------------------------------|
B|--------7h8p7p5h7~~~p5h7~~~~p5h7~~~p5h7~~~~p5s3h5-3p0-----------|
G|-----------------------------------------------------2~~p0------|
D|----------------------------------------------------------2-----|
A|----------------------------------------------------------------|
E|----------------------------------------------------------------|

E|--------------------7-12---10p7-8p7-----------------------------|
B|----------------7-8-----------------10-8p7h8p7------------------|
G|------------7-9--------------------------------9-7---7----------|
D|------5-7-9----------------------------------------9---10-9-7s5-|
A|----7-----------------------------------------------------------|
E|----------------------------------------------------------------|

E|--------------------------------------------------------7s12~~~-|
B|---------------------------------------------------8-10---------|
G|----------------------------------------------9-11--------------|
D|-----5-7s9~~~~~~-----4s5~~~s2s4s2~~~~~--------------------------|
A|-7-7--------------------------------0~~~~~~~--------------------|
E|----------------------------------------------------------------|

E|---7s8--7--------------------------------------------------7----|
B|----------10-8----------------------------------------8-10------|
G|------------------7h9-9-7--4----4--4-4-4-5-7-9--9-9-9-----------|
D|-----------------------------5----------------------------------|
A|----------------------------------------------------------------|
E|----------------------------------------------------------------|

E|---7s8-8-7---------------------------12----------------12-12h15-12-15--s19--17~~-|
B|----------10-8--------------------------15-13-12-13-15---------------------------|
G|------------------7h9-9-7--4-----------------------------------------------------|
D|-----------------------------5---------------------------------------------------|
A|---------------------------------------------------------------------------------|
E|---------------------------------------------------------------------------------|


Solo: Nels Cline
            
Submit corrections


        Impossible Germany lessons Hard to play? Try these video lessons and learn fast Impossible Germany lessons
        
↑ Back to top | Tablatures and chords for acoustic guitar and electric guitar, ukulele, drums are parodies/interpretations of the original songs. You may use it for private study, scholarship, research or language learning purposes only