Home » W » White Stripes »

White Stripes - Catch Hell Blues Tabs

Artists:  A B C D E F G H I J K L M N O P Q R S T U V W X Y Z # 

Catch Hell Blues Tabs

(ver. 1) Click to play this song!
White Stripes
 Rating:
4/5 (4 votes)
                really impressive song. love it and cant stop playing/listening to it
enjoy!!!!

intro not 100% percent perfect but i think at least in the 90s
e-------------------------------------------------------------------------|
B-----------------------------------------9b----9--------------10---------|
G---6/5\6b------5b5p3----5-5---1-1--------9b--9---9----------10--10-------|
D---6/5\6b---5--------5--5-5---1-1--------9b------------------------------|
A------------------------------------------------------10/-----------10/--|
E------------------------------------------------------10/-----------10/--|
bridge
e-------------------------------------------------------------------------|
B-------------------------------------------------------------------------|
G---2---4---5---7--9/10\9------12----14----10--9--5/7\5---9----10--7--5---|
D--2---4---5---7---9/10\9----12----14----10---9---5/7\5--9---10---7--5----|
A-2---4---5---7----9/10\9--12----14----10----9----5/7\5-9--10----7--5-----|
E-------------------------------------------------------------------------|
pm...............        .......................

e--------------------------------------------------------------------------|
B--------------------------------------------------------------------------|
G-9/10\9-------------------------------------------------------------------|
D-9/10\9--2-25-25-25-25-x2--second time un-muted---------------------------|
A-9/10\9--2-25-25-25-25----------------------------------------------------|
E---------0-00-00-00-00----------------------------------------------------|

e-------------------------------------------------------------------------|
B-------------------------------------------------------------------------|
G-------------------------------------------------------------------------|
D-2-2-2-3-3-3-5-5-5-7-7-7---9/10\9--121212-141414-101010-9-9-9--5/7\5-----|
A-2-2-2-3-3-3-5-5-5-7-7-7---9/10\9--121212-141414-101010-9-9-9--5/7\5-----|
E-0-0-0-0-0-0-0-0-0-0-0-0---0/0-\0--0-0-0--0-0-0--0-0-0--0-0-0--0-0-0-----|

e-------------------------------------------------------------------------|
B-------------------------------------------------------------------------|
G-------------------------------------------------------------------------|
D---9-9-9--101010-7-7-7-5-5-5-9/10\9---2-2-5-2-5-2-5-2-5------------------|
A---9-9-9--101010-7-7-7-5-5-5-9/10\9---2-2-5-2-5-2-5-2-5----10/-----------|
E---0-0-0--0-0-0--0-0-0-0-0-0-0/0-\0---0-0-0-0-0-0-0-0-0----10/-----------|

verse
e-------------------------------------------------------------------------|
B-------------------------------------------------------------------------|
G-------------------------------------------------------------------------|
D--2-2--3-3--5-5--7-7---2-2---3-3---5-5--7-7------------------------------|
A--2-2--3-3--5-5--7-7---2-2---3-3---5-5--7-7--x2--------------------------|
E--0-0--0-0--0-0--0-0---0-0---0-0---0-0--0-0------------------------------|


interlude
e---12-12-12-12-12-10-10-12-12-10-12-12-10-12-12-x2-----------------------|
B-------------------------------------------------------------------------|
G-------------------------------------------------------------------------|
D-------------------------------------------------------------------------|
A-------------------------------------------------------------------------|
E-------------------------------------------------------------------------|
                                                         (with wammy pedal)
e---14-14-14-14-14-15-14-12-14-14-12-14-14-12-14-14-x2---12-14-12-14-x5----|
B--------------------------------------------------------------------------|
G--------------------------------------------------------------------------|
D--------------------------------------------------------------------------|
A----------------------------------------------------------------------10--|
E----------------------------------------------------------------------10--|

bridge

verse

interlude

bridge

solo

ending

e-------------------------------------------------------------------------|
B-------------------------------------------------------------------------|
G----2--4--5---7-9/10\9--2------------------------------------------------|
D---2--4--5---7--9/10\9--2------------------------------------------------|
A--2--4--5---7---9/10\9--2------------------------------------------------|
E------------------------0------------------------------------------------|
pm..............
            
Submit corrections

↑ Back to top | Tablatures and chords for acoustic guitar and electric guitar, ukulele, drums are parodies/interpretations of the original songs. You may use it for private study, scholarship, research or language learning purposes only