Home » W » White Stripes »

White Stripes - Dead Leaves Dirty Ground Chords

Artists:  A B C D E F G H I J K L M N O P Q R S T U V W X Y Z # 

Dead Leaves Dirty Ground Chords

(ver. 1) Click to play this song!
White Stripes
 Rating:
4/5 (4 votes)
                DEAD LEAVES AND THE DIRTY GROUND
********************************
WHITE STRIPES

OK, this is how I play this song... I don't think it's exactly how
Jack White plays it, but it makes sense to me. Any corrections or 


INTRO:
-----------------------------------------------------------
-----------------------------------------------------------
-----------------------------------------------------------
-----------------------------------------------------------
-----------------------------------------------------------
---5-5-5-0--3-3-3-0--2-2-0--1-1-0--5----------------------- (X2)

-----------------------------------------------------------
-----------------------------------------------------------
-----------------------------------------------------------
-7-7-7-0--5-5-5-0---------3-3-0--7-------------------------
-7-5-5-0--5-5-5-0---------3-3-0--7-------------------------
-5-5-5-0--3-3-3-0--2-2-0--1-1-0--5-------------------------

FIRST VERSE:
A        G       D     C     A
"...Dead leaves and the dirty ground..."
                          F         G         A
                    ",...When I hear you're lips make a sound..."


CHORUS:
A	G	F#  F	A	x2



BRIDGE:
B					A
	I didn't feel so bad till the sun went down
B						F	G	A
	Then I come home no one to wrap my arms around, wrap my arms around


OUTRO:
A		G			F	G	A
Well any man with a microphone can tell you what he loves the most
A		G			F	G	A		F	G	A
And you know why you love at all if you're thinking of the holy ghost, if you're thinking of the holy ghost
A	G	F  G  A	x2



LYRICS:

1ST VERSE
Dead Leaves and the Dirty Ground when I know you're not around
Shiny tops and soda pops when I hear your lips make a sound, when I hear you're lips make a sound
Thirty notes in the mailbox will tell you that I'm coming home
And I think I'm gonna stick around, for a while so you're not alone, for a while so you're not alone

2ND VERSE
If you can hear a piano fall you can hear me coming down the hall
If I could just hear your pretty voice, I don't think I need to see at all, I don't think I need to see at all
Soft hair and a velvet tongue I want to give you what you give to me
And every breath that is in your lungs, is a tiny little gift to me, is a tiny little gift to me


************************************************************

at least it don't suck that much. =)


LISTEN TO JEFF BUCKLEY!!!!!
            
Submit corrections

↑ Back to top | Tablatures and chords for acoustic guitar and electric guitar, ukulele, drums are parodies/interpretations of the original songs. You may use it for private study, scholarship, research or language learning purposes only