Home » W » White Stripes »

White Stripes - Seven Nation Army 1 Bass

Artists:  A B C D E F G H I J K L M N O P Q R S T U V W X Y Z # 

Seven Nation Army 1 Bass

(ver. 1) Click to play this song!
White Stripes
 Rating:
3.8/5 (8 votes)
                /=slide up
 \=slide down

 Simple song, yet somehow very cool.

 RIFF 1:
 G|-----------------------------|| x12
 D|*---------5-----------------*||
 A|*--7----7---7--5------------*||
 E|------------------8----7-----||

 If you'd rather play it higher up on the neck...

 RIFF 2:
 G|----------0------------------|| x12
 D|*--2----2---2--0------------*||
 A|*-----------------3----2----*||
 E|-----------------------------||

 PRE-CHORUS/POST-CHORUS:
 G|-----------------------------------|
 D|-----------------------------------|
 A|-----------------------------------|
 E|--3-3-3-3-3-3-3-3-5-5-5-5-5-5-5-5--| to riff 1 or 2

 CHORUS VARIATION:
 G|------------------------------|
 D|---------5--------------------|
 A|--7----7---7--5---------------|
 E|------------------8/10\8-7----|

 CHORUS VARIATION 2:
 G|----------0-------------------|
 D|*--2----2---2--0--------------|
 A|*-----------------3/5\3--2----|
 E|------------------------------|

 riff x12, pre-chorus, riff, variation, riff, post-chorus, repeat...

 END:
 G|--------------||
 D|--------------||
 A|--7-------7\--||
 E|--------------||

 ("and I will sing no more"), pre-chorus, riff, variation, riff, variation, end.

 Feel free to alternate the riffs and variations as you so desire.

 And that's it.
            
Submit corrections

↑ Back to top | Tablatures and chords for acoustic guitar and electric guitar, ukulele, drums are parodies/interpretations of the original songs. You may use it for private study, scholarship, research or language learning purposes only