Home » W » White Stripes »

White Stripes - Ball And Biscuit Tabs

Artists:  A B C D E F G H I J K L M N O P Q R S T U V W X Y Z # 

Ball And Biscuit Tabs

(ver. 2) Click to play this song!
White Stripes
 Rating:
4/5 (13 votes)
                The White Stripes Ball and Biscuit Intro:

Tempo = 73 bpm.

e-----0-----0-------------------
B-----0--3--0--x-x-x-x-x-x--0---
G--1-----1-----x-x-x-x-x-x------
D--2-----------x-x-x-x-x-x------
A--2-—2-----2--x-x-x-x-x-x--3---
E--0----------------------------

e-----------0-----0-----------------
B-----------0-----0--x-x-x-x-x-x-0--
G-----1--1-----2-----x-x-x-x-x-x-0--
D-----2--2-----------x-x-x-x-x-x----
A---—-2--2-----------x-x-x-x-x-x-3--
E--0--------0--0--0-----------------

e-----0---0--0-----0---------------------
B-----0---0--0--3--0--------0------------
G-----1---1-----1------2/4----4/2p0------
D-----------------------------------2p0--
A---—--------2-----2---------------------
E--0--0---0------------------------------

e-----------0------0--x-x-x-x-x-x--------
B-----0--0--0---3--0--x-x-x-x-x-x—3p0----
G-----1---------1-----x-x-x-x-x-x--------
D--------2------------x-x-x-x-x-x--------
A---—----2--2------2---------------------
E--0-----0-------------------------------
            
Submit corrections

↑ Back to top | Tablatures and chords for acoustic guitar and electric guitar, ukulele, drums are parodies/interpretations of the original songs. You may use it for private study, scholarship, research or language learning purposes only