Home » W » White Rabbits »

White Rabbits - Percussion Gun Tabs

Artists:  A B C D E F G H I J K L M N O P Q R S T U V W X Y Z # 

Percussion Gun Tabs

(ver. 3) Click to play this song!
White Rabbits
(Intro)
Percussion Gun-White Rabbits
Tuning:Standard




e|--9--9---8--8---3--3--3--3---|
B|-----------------------------|
G|-----------------------------|
D|-----------------------------|X3
A|-8--8--6--6--1--1--1--1------|
E|-----------------------------|

e|-------------------|
B|--1--1--1--1-------|
G|-------------------|
D|-------------------|
A|-3--3--3--3--------|
E|-------------------|
            
Submit corrections

↑ Back to top | Tablatures and chords for acoustic guitar and electric guitar, ukulele, drums are parodies/interpretations of the original songs. You may use it for private study, scholarship, research or language learning purposes only