Home » W » White Rabbits »

White Rabbits - Percussion Gun Bass

Artists:  A B C D E F G H I J K L M N O P Q R S T U V W X Y Z # 

Percussion Gun Bass

(ver. 1) Click to play this song!
White Rabbits
Song- Percussion Gun
Artist- White Rabbits
Album- It's Frightening

G|----------------------------------------------------------|
D|----------------------------------------------------------|
A|--------------------------------------11---------13-------|
E|-13-11-6--6--------13-11-6--6------13---13-11-13-----6-6--|


G|----------------------------------------------------------|
D|----------------------------------------------------------|
A|----------------------------------------------------------|
E|-8-8-8--15p13-11-----8-8-8-15p13-11----8-8-8-15p13-11-----|

G|----------------------------------------------------------|
D|----------------------------------------------------------|
A|----------------------------------------------------------|
E|-8-8-8--15p13-11-----8-8-8-15p13-11----8-8-8-15p13-11-----|

G|----------------------------------------------------------|
D|----------------------------------------------------------|
A|--------------------------------------11---------13-------|
E|-13-11-6--6--------13-11-6--6------13---13-11-13-----6-6--|

Outro (oooo)
G|----------------------------------------------------------|
D|----------------------------------------------------------|
A|------------------------------------------11---------13---|
E|-13-11-6--6----------13-11-6--6--------13---13-11-13------|

G|----------------------------------------------------------|
D|----------------------------------------------------------|
A|----------------------------------------------------------|
E|-13-13------8-8-8---8-8-8---8-8-8---8-8-8----15p13-11-----|

Its more or less along the lines of the album version of the song.
            
Submit corrections

↑ Back to top | Tablatures and chords for acoustic guitar and electric guitar, ukulele, drums are parodies/interpretations of the original songs. You may use it for private study, scholarship, research or language learning purposes only