Home » W » Wax »

Wax - Limousine Tabs

Artists:  A B C D E F G H I J K L M N O P Q R S T U V W X Y Z # 

Limousine Tabs

(ver. 2) Click to play this song!
Wax
This is the acoustic version of Limousine by Wax aka Big Wax.
Listen to the song to hear exactly how it's played.

The song uses 4 chords throughout. The chords are:

E-------------------------|
B-----------9-------------|
G--13---9---9---8---------|
D--14---9---7---7---------|
A--14---7-------X---------|
E--12---9-------7---------|

Generally Wax plays this (D=down, U=up):
E--------------------------------------------------------------|
B-----------------9--9--------------------------9--9-----------|
G-13--13---9--9---9--9---8--8---13--13---9--9---9--9---8~------|
D-14--14---9--9---7--7---7--7---14--14---9--9---7--7---7~------|
A-14--14---7--7----------X--X---14--14---7--7----------X~------|
E-12--12---9--9----------7--7---12--12---9--9----------7~------|
  D   U    D  U   D  U   D  U   D   U    D  U   D  U   D
            
Submit corrections

↑ Back to top | Tablatures and chords for acoustic guitar and electric guitar, ukulele, drums are parodies/interpretations of the original songs. You may use it for private study, scholarship, research or language learning purposes only