Home » W » Warpaint »

Warpaint - No Way Out Tabs

Artists:  A B C D E F G H I J K L M N O P Q R S T U V W X Y Z # 

No Way Out Tabs
Version #2
Warpaint


Copy URL
Tuning: Standard

e|-----------------------------------------------------------------|
B|-----------------------------------------------------------------|
G|-----------------------------------------------------------------|
D|-------------20--0--------------------------2/4------------------|
A|---4--2-0---------4-000-2420------4----20------2/-4--0002--------|
E|--2-------0------------------02-2--------0----------------2------|


e|-----------------------------------------------------------------|
B|-----------------------------------------------------------------|
G|-----------------------------------------------------------------|
D|----------2-----------------------2/4----------------------------|
A|--4-2-0-----5-54-0002420---4-20------2/-4-000-000----------------|
E|-2-------0--------------02------0--------------------------------|


e|-----------------------------------------------------------------|
B|-------------------------------2----2-------3--------------------|
G|-----2-----2----/-4----4------2-2--2-2-------2-------------------|
D|----2-2---2-2--/-4-4--4-4----4---44-------4---0------------------|
A|---4----44----/-5---55-------------------5-----------------------|
E|-0---------------------------------------------------------------|



e|-----------------------------------------------------------------|
B|-----------------------------------------------------------------|
G|-----------------------------------------------------------------|
D|-------------20--0-----------------------------------------------|
A|---4--2-0---------4-000-2420----4--20----------------------------|
E|--2-------0------------------02--------0--------2----------------|

break

e|-----------------------------------------------------------------|
B|-----------------------------------------------------------------|
G|-----------------------------------------------------------------|
D|-----------------------------------------------------------------|
A|----02-2-4---02--------------------------------------------------|
E|-02--------------02-------02-------02-------02-------------------|

e|-----------------------------------------------------------------|
B|-----------------------------------------------------------------|
G|-----------------------------------------------------------------|
D|------2---4------------2---4---------2---4---22-222----2---4-----|
A|-------0-2--------------0-2-----------0-2---0--0--------0-2------|
E|-----0-------02-------0------02-----0-----------------0----------|

e|------------------------------------------------------------|
B|------------------------------------------------------------|
G|------------------------------------------------------------|
D|-------22--22----2---4--------------------------------------|
A|-----0---0--------0-2---------------------------------------|
E|----------------0-------------------------------------------|

e|-------------------------------------------------------------------------------------|
B|-------------------------------------------------------------------------------------|
G|-------------------------------------------------------------------------------------|
D|---------------------------------------------------------44--------------------------|
A|---------2-2/4-4/5\2----------2-2-----------------2-2-4/5--5-54-42--20---------------|
E|-24-45--5-5------------24-45-5-5--2/4\0---24-45--5-5------------------42-------------|

e|-------------------------------------------------------------------------------------|
B|-------------------------------------------------------------------------------------|
G|-------------------------------------------------------------------------------------|
D|---------------------------------------------------------44--------------------------|
A|---------2-2/4-4/5\2----------2-2-----------------2-2-4/5--5-54-42--20---------------|
E|-24-45--5-5------------24-45-5-5--2/4\0---24-45--5-5------------------2--------------|

e|-------------------------------------------------------------------------------------|
B|-------------------------------------------------------------------------------------|
G|-------------------------------------------------------------------------------------|
D|---------------------------------------------------------44--------------------------|
A|---------2-2/4-4/5\2----------2-2-----------------2-2-4/5--5-54-42--20---------------|
E|-24-45--5-5------------24-45-5-5--2/4\0---24-45--5-5------------------42-------------|


e|-----------------------------------------------------------------|
B|-7--10--7----------7--10--7-------7------------------------------|
G|-6--9---6----------6--9---6-------6------------------------------|
D|-4--7---4---2------4--7---4---2---4------------------------------|
A|-4--7---4---2------4--7---4---2---4------------------------------|
E|------------0-----------------0----------------------------------|

e|-------------------------------------------------------------------------------------|
B|-------------------------------------------------------------------------------------|
G|-------------------------------------------------------------------------------------|
D|---------------------------------------------------------44--------------------------|
A|---------2-2/4-4/5\2----------2-2-----------------2-2-4/5--5-54-42--20---------------|
E|-24-45--5-5------------24-45-5-5--2/4\0---24-45--5-5------------------42-------------|

e|-------------------------------------------------------------------------------------|
B|-------------------------------------------------------------------------------------|
G|-------------------------------------------------------------------------------------|
D|---------------------------------------------------------44--------------------------|
A|---------2-2/4-4/5\2----------2-2-----------------2-2-4/5--5-54-42--20---------------|
E|-24-45--5-5------------24-45-5-5--2/4\0---24-45--5-5------------------42-------------|


e|-----------------------------------------------------------------|
B|-----------------------------------------------------------------|
G|-11~---11--\--9~---9---/---11~---11--/--14---14--\--9~--9/--11---|
D|-11~---11--\--9~---9---/---11~---11--/--14---14--\--9~--9/--11---|
A|-9-~---9---\--7~---7---/---9~----9--/---12---12--\--7~--7/--9----|
E|-----------------------------------------------------------------|

e|-----------------------------------------------------------------|
B|-----------------------------------------------------------------|
G|-----------------------------------------------------------------|
D|-9-9-9-9-9/7-----------------------------------------------------|
A|-----------------------------------------------------------------|
E|-----------------------------------------------------------------|

e|-----------------------------------------------------------------|
B|-------------------------------10-10-10--------------------------|
G|----------11-11-11-11-11-------11-11-11--------------------------|
D|-9-9-9----12-12-12-12-11-------12-12-12--------------------------|
A|-----------------------------------------------------------------|
E|-----------------------------------------------------------------|

e|-----------------------------------------------------------------|
B|--10101010-9-7---or----10--9--7----------------------------------|
G|-----------------------11--9--6----------------------------------|
D|-----------------------11--9--7----------------------------------|
A|-----------------------------------------------------------------|
E|-----------------------------------------------------------------|

e|--17---17---14-------17---17---14------------17------------------|
B|--15---15---14-------15---15---14-------15-----15----------------|
G|--14---14---14-------14---14---14-----14--14-----14--------------|
D|--16---16---16-------16---16---16---16-------------16------------|
A|-----------------------------------------------------------------|
E|-----------------------------------------------------------------|


e|--17--------14-------17--17---19---14----------------------------|
B|--15---15---14-------15--15---15---14-------15-------------------|
G|--14---14---14-------14--14---14---14-----14--14-----------------|
D|--16---16---16-------16--16---16---16---16-----------------------|
A|-----------------------------------------------------------------|
E|-----------------------------------------------------------------|
            
Submit corrections

↑ Back to top | Tablatures and chords for acoustic guitar and electric guitar, ukulele, drums are parodies/interpretations of the original songs. You may use it for private study, scholarship, research or language learning purposes only