Home » W » Warpaint »

Warpaint - Burgundy Bass

Artists:  A B C D E F G H I J K L M N O P Q R S T U V W X Y Z # 

Burgundy Bass

(ver. 1) Click to play this song!
Warpaint
-------------------------------------------------------------------------------
                             BURGUNDY - Warpaint
-------------------------------------------------------------------------------

Because Jenny Lee Lindberg's bass lines deserve to be played as much as possible


  0:22 - 1:35
G|----11-------11-11-----11-------11-11\-----7-------7-7-----7-------7/9---|
D|9--------9---------9--------9----------5-------5-------5-------5---------|
A|-------------------------------------------------------------------------| x 8
E|-------------------------------------------------------------------------|

  1:36 - 1:45
G|------------------------------14---14\-7---------------------------------|
D|12---12---12---12---12---12--------------5---5---5---5---5---5---5---5---|
A|-------------------------------------------------------------------------|
E|-------------------------------------------------------------------------|

  1:46 - 1:56
G|----11-------11-11-----11-------11-11\-----7-------7-7-----7-------7/9---|
D|9--------9---------9--------9----------5-------5-------5-------5---------|
A|-------------------------------------------------------------------------|
E|-------------------------------------------------------------------------|

  1:56 - 2:57
G|----------------------------------------------------------------|
D|9---0-9---0-9-0-9---0-9---0-9-0-5---0-5---0-5-0-5---0-5---0-5-0-|
A|----------------------------------------------------------------| x 6
E|----------------------------------------------------------------|

  2:58 - 3:06
G|----7---------------7-------------------------------------------|
D|9-----9---0-9-0-9-----9---0-9-0-5---0-5---0-5---5---0-5---0-5-0-|
A|----------------------------------------------------------------|
E|----------------------------------------------------------------|

  3:07 - 3:16
G|----7---------------7-------------------------------------------|
D|9-----9---0-9-0-9-----9---0-9-0-5---0-5---0-5-0-5---0-5---0-5-7-|
A|----------------------------------------------------------------|
E|----------------------------------------------------------------|

  3:17 - 3:46
G|----11\9-----9-------11------14-14-\-----11\9-----9-------11------------|
D|---------------7-9-9----9-12------------------------7-9-9----9-12-------|
A|9-9------7-7-------------------------9-9------7-7-----------------4-5-7-| x 3
E|------------------------------------------------------------------------|

  3:47 - 4:11
G|----11\9-----9-------11------14-14-\|
D|---------------7-9-9----9-12--------|
A|9-9------7-7------------------------| x 5
E|------------------------------------|

  4:11 - End
G|----11\9-----9-------11------14-14-14-14--------14--------14--------|
D|---------------7-9-9----9-12----------------------------------------|
A|9-9------7-7--------------------------------------------------------|
E|--------------------------------------------------------------------|

Please comment & rate!


| /  slide up
| \  slide down
| h  hammer-on
| p  pull-off
| ~  vibrato
| +  harmonic
| x  Mute note
===============================================================================
            
Submit corrections

↑ Back to top | Tablatures and chords for acoustic guitar and electric guitar, ukulele, drums are parodies/interpretations of the original songs. You may use it for private study, scholarship, research or language learning purposes only