» » »

Vance Joy - Mess Is Mine Tabs

Artists:  A B C D E F G H I J K L M N O P Q R S T U V W X Y Z # 

Mess Is Mine Tabs

(ver. 3) Click to play this song!
Vance Joy
 Rating:
3.7/5 (20 votes)

 Mess Is Mine  lessons Tabs too difficult? Try these video lessons and learn fast
 
                Intro and Verse

|------------------------------------------------------------|
|-----8----------------5------------0------------ 0-----0----|
|--------0------------------------------0---------0-----0----|
|------------------------------------------------------------|
|-7-------7---------3----------------------------------------|
|---------------------------------3--------3------3-----3----|


|---------------------------------------------------------------------|
|-----0---------------------1----------0--------------0-----0---------|
|--------0---------------------------------0----------0-----0---------|
|---------------------------------------------------------------------|
|------------------------3--------------------------------------------|
|-0--------0------------------------3----------3------3-----3---------|



Chorus

|-----------------------------------------------------------------------|
|----0-------0-------1--------1--------1--------1---------1---------1---|
|-----0-------0-------0--------0--------0--------0---------0---------0--|
|-----------------------------------------------------------------------|
|-----------------------------------------------------------------------|
|-3------3-3-----3-3------3-3------3-3------3-3------3-3-------3-3------|


|--------------------------------------|
|-----1-----------0-----0}1----1/3-----|
|------0-----------0----0}0----0/0-----|
|--------------------------------------|
|--------------------------------------|
|-3-3--------3-3-----------------------|




Bridge
    
  Em         C          G           D
|------------------------------------------------|
|----0--0------1--1--------0--0---------3--3-----|
|-----0--0------0--0--------0--0---------2--2----|
|-----------------------------------0------------|
|-2--------0-3--------3-----------0--------------|
|-----------------------3------------------------|



The Interlude and Outro

D = Downwards strum
U = Upwards Strum


    Em         C              G
|--0-0-0---0---0---0---3-3-3-3-3-3-3---|
|--0-0-0---0---1---0---0-0-0-0-0-0-0---|
|--0-0-0---0---0---0---0-0-0-0-0-0-0---|
|--2-2-2---0---2---0---0-0-0-0-0-0-0---|
|--2-2-2---0---3---0---2-2-2-2-2-2-2---|
|--0-0-0---0---0---0---3-3-3-3-3-3-3---|

   D D U   D   D   D   D D U D D D D            
Submit corrections


        Mess Is Mine  lessons Hard to play? Try these video lessons and learn fast Mess Is Mine  lessons
        
↑ Back to top | Tablatures and chords for acoustic guitar and electric guitar, ukulele, drums are parodies/interpretations of the original songs. You may use it for private study, scholarship, research or language learning purposes only