» » »

Vance Joy - Mess Is Mine Tabs

Artists:  A B C D E F G H I J K L M N O P Q R S T U V W X Y Z # 

Mess Is Mine Tabs

(ver. 1) Click to play this song!
Vance Joy
 Rating:
2.7/5 (24 votes)

 Mess Is Mine  lessons Tabs too difficult? Try these video lessons and learn fast
 
                Tuning: standard (eadgbe)

Intro:
e|-----------------------------------------------------------------------------------|
B|-----8-------5-5-----0-----------0-----------0-------1-1-----0-----------0---------|
G|-0-------0-------0-------0---0-------0---0-------0-------0-------0---0-------0-----|
D|-----------------------------------------------------------------------------------|
A|-7-7---7---7-3-3-------------------------------------3-3---------------------------|
E|-----------------3-3---3---3-3-3---3---3-0-0---0---0-----3-3---3---3-3-3---3---3---|

Verse:
e|-----------------------------------------------------------------------------------|
B|-----8-------5-5-----0-----------0-----------0-------1-1-----0-----------0---------|
G|-0-------0-------0-------0---0-------0---0-------0-------0-------0---0-------0-----|
D|-----------------------------------------------------------------------------------|
A|-7-7---7---7-3-3-------------------------------------3-3---------------------------|
E|-----------------3-3---3---3-3-3---3---3-0-0---0---0-----3-3---3---3-3-3---3---3---|

Chorus Part 1:
e|---------------------------------------------------------------------------|
B|-----0-----------0---------------------------------------------------------|
G|-0-------0---0-------0-----------------------------------------------------|
D|---------------------------------------------------------------------------|
A|---------------------------------------------------------------------------|
E|-3-3---3---3-3-3---3---3---------------------------------------------------|

Chorus Part 2:
e|---------------------------------------------------------------------------|
B|-----1-----------1---------------------------------------------------------|
G|-0-------0---0-------0-----------------------------------------------------|
D|---------------------------------------------------------------------------|
A|---------------------------------------------------------------------------|
E|-3-3---3---3-3-3---3---3---------------------------------------------------|

Chorus Part 3:
e|------------------------------------------------------------------------------|
B|-----0-------0h1---3----------------------------------------------------------|
G|-0-------0-------------0------------------------------------------------------|
D|------------------------------------------------------------------------------|
A|------------------------------------------------------------------------------|
E|-3-3---3---3-3---3---3---3----------------------------------------------------|

Interlude:
e|-0-0-0-0-0--0-0--3-3-3-3-3--3-3-3-3-3--0-0-0-0-0--0-0--3-3-3-3-3--3-3-3-3-3--|
B|-3-3-3-3-3--1-1--0-0-0-0-0--0-0-0-0-0--0-0-0-0-0--1-1--0-0-0-0-0--0-0-0-0-0--|
G|-0-0-0-0-0--0-0--0-0-0-0-0--0-0-0-0-0--0-0-0-0-0--0-0--0-0-0-0-0--0-0-0-0-0--|
D|-2-2-2-2-2--2-2--0-0-0-0-0--0-0-0-0-0--2-2-2-2-2--2-2--0-0-0-0-0--0-0-0-0-0--|
A|-2-2-2-2-2--3-3--2-2-2-2-2--2-2-2-2-2--2-2-2-2-2--3-3--2-2-2-2-2--2-2-2-2-2--|
E|-----------------3-3-3-3-3--3-3-3-3-3------------------3-3-3-3-3--3-3-3-3-3--|

Bridge
e|---------------------------------------------------------------------------|
B|---0---0---1---1---0---0---3---3-------------------------------------------|
G|---------------------------------------------------------------------------|
D|---------------------------------------------------------------------------|
A|---------3---3-------------------------------------------------------------|
E|-0---0-----------3---3---2---2---------------------------------------------|

Intro x2
Verse x4
Chorus Part 1
Chorus Part 2 x4
Chorus Part 3
Chorus Part 1
Chorus Part 2 x4
Interlude x2
Verse x4
Chorus Part 1
Chorus Part 2 x4
Chorus Part 3
Chorus Part 1
Chorus Part 2 x4
Interlude x2
Bridge x3
Interlude x4            
Submit corrections


        Mess Is Mine  lessons Hard to play? Try these video lessons and learn fast Mess Is Mine  lessons
        
↑ Back to top | Tablatures and chords for acoustic guitar and electric guitar, ukulele, drums are parodies/interpretations of the original songs. You may use it for private study, scholarship, research or language learning purposes only