» » »

Used - Noise And Kisses Tabs

Artists:  A B C D E F G H I J K L M N O P Q R S T U V W X Y Z # 

Noise And Kisses Tabs

(ver. 2) Click to play this song!
Used
 Rating:
4/5 (4 votes)

 Noise And Kisses lessons Tabs too difficult? Try these video lessons and learn fast
 
                Intro

e------------------------------------------------
B-1---repeat until verse------------------------- It helps to use
G------------------------------------------------ alternate picking
D------------------------------------------------ if you want to be
A------------------------------------------------ quick with the song
E------------------------------------------------

Verse (Phaser Effect is used if you have it, use clean or distortion)

e------------------------------------------------ Repeat this 4 times
B------------------------------------------------ till the next small part comes
G------------------------------------------------ I'd put your pinky on the 5th fret
D---3-3p2--3-3p2--5-5p2--5-5p2------------------- while your middle is on 3 
A------------------------------------------------ and pointer on 2
E------------------------------------------------ That way, you won't have to move as much

Post Verse/Upcoming Verse (Phaser Effect optional, and distortion)

e------------------------------------------------ You have two choices
B------------------------------------------------ He uses phaser so if you have use
G---555555555------------------------------------ that, rake the strings
D---555555555------------------------------------ If not, use distortion and hit 
A---333333333------------------------------------ these chords. If you have phaser and want to
E------------------------------------------------ strum the chords, it will sound fine

2nd Verse (Phaser still on, use clean or distortion)

e------------------------------------------------ Repeat 4 times
B------------------------------------------------ Use same technique as before
G--3-3p2---3-3p2--5-5p2-5-5p2--------------------
D------------------------------------------------
A------------------------------------------------
E------------------------------------------------

Post Verse/Pre-Chorus (Phaser Effect Optional, and distortion)

e------------------------------------------------ Same choices as before
B------------------------------------------------
G---555555555------------------------------------ Raking or using chords
D---555555555------------------------------------
A---333333333------------------------------------
E------------------------------------------------

Chorus (Phaser off, Distortion left on)

e------------------------------------------------ Repeated twice
B------------------------------------------------ this is strummed
G---5-5-5-5-5------------------------------------ slower than the 
D---5-5-5-5-5---7-7-7-7-7---3-3-3-3-3---5-5-5-5-5 post verse. Listen
A---3-3-3-3-3---7-7-7-7-7---3-3-3-3-3---5-5-5-5-5 to the song for timing.
E---------------5-5-5-5-5---1-1-1-1-1---3-3-3-3-3

3rd Verse (Phaser on, use clean or distortion)

e------------------------------------------------ Repeat 4 times
B------------------------------------------------ Same finger techniques
G---3-3p2--3-3p2--5-5p2--5-5p2-------------------
D------------------------------------------------
A------------------------------------------------
E------------------------------------------------

Post Verse/Upcoming Verse (Phaser Effect Optional, and distortion)

e------------------------------------------------ Same choices as before
B------------------------------------------------ 
G---555555555------------------------------------ Raking or using chords
D---555555555------------------------------------
A---333333333------------------------------------
E------------------------------------------------

2nd Chorus (Phaser off, Distortion on)

e------------------------------------------------ Repeated twice
B------------------------------------------------ Bert goes a lot higher with his voice
G---5-5-5-5-5------------------------------------ but the chords don't change, so dont 
D---5-5-5-5-5---7-7-7-7-7---3-3-3-3-3---5-5-5-5-5 let it trick you. 
A---3-3-3-3-3---7-7-7-7-7---3-3-3-3-3---5-5-5-5-5 Right before playing it the second time around,
E---------------5-5-5-5-5---1-1-1-1-1---3-3-3-3-3 rake the strings quickly, then continue.

Bridge (Phaser still off, Distortion still on)

e-------------------------------------------------- Repeated 4 times
B-------------------------------------------------- Strummed slightly faster than chorus
G-------------------------------------------------- listen to song for timing
D---7-7-7-7-7-7-7---3-3-3-3-3-3-3--|--5-5-5-5-5-5-5 after the fourth time through,
A---7-7-7-7-7-7-7---3-3-3-3-3-3-3--|--5-5-5-5-5-5-5 hit the 5. the | is there for seperation. It ends to Bridge.
E---5-5-5-5-5-5-5---1-1-1-1-1-1-1--|--3-3-3-3-3-3-3         5
							    3
                                                           
Verse (Phaser On, clean or distortion)

e-------------------------------------------------- Same technique
B-------------------------------------------------- Phaser sounds better here
G-------------------------------------------------- since it's the only instrument playing
D---3-3p2--3-3p2--5-5p2--5-5p2---------------------
A--------------------------------------------------
E--------------------------------------------------

Chorus/End (Phaser Off, Distortion on)

e-------------------------------------------------- Repeated twice
B-------------------------------------------------- Bert goes higher again
G---5-5-5-5-5-------------------------------------- Rake strings quickly 
D---5-5-5-5-5---7-7-7-7-7---3-3-3-3-3---5-5-5-5-5-- before going the second time around
A---3-3-3-3-3---7-7-7-7-7---3-3-3-3-3---5-5-5-5-5-- Chorus fades for the ending
E---------------5-5-5-5-5---1-1-1-1-1---3-3-3-3-3--

The overall order in case you get totally lost with all the cr*p I got up there is:

Intro
Verse
Post Verse/Upcoming Verse
2nd Verse
Post Verse/Pre-Chorus
Chorus
3rd Verse
Post Verse/Upcoming Verse
2nd Chorus
Bridge
Verse
Chorus/End



I doubt I made any huge mistakes, remember that the song will sound a little different if you don't have or use the Phaser Effect.

-Rich
            
Submit corrections


        Noise And Kisses lessons Hard to play? Try these video lessons and learn fast Noise And Kisses lessons
        
↑ Back to top | Tablatures and chords for acoustic guitar and electric guitar, ukulele, drums are parodies/interpretations of the original songs. You may use it for private study, scholarship, research or language learning purposes only