Home » U » Used »

Used - Noise And Kisses Bass

Artists:  A B C D E F G H I J K L M N O P Q R S T U V W X Y Z # 

Noise And Kisses Bass

(ver. 1) Click to play this song!
Used
Noise and Kisses - The Used

Tuning - Drop D

Verse
G|----------------------------------------------------|
D|-------------------55-5-5-3-2-------------55-5-77-7-|
A|-10\---33-3-55-5----------------33-3-55-5-----------|
D|----------------------------------------------------|

G|---------------------------------------------------------------|
D|-------------55-5-5-3-2-------------55-5-55-5--222222222222222-|
A|-33-3-55-5----------------33-3-55-5----------------------------|
D|---------------------------------------------------------------|

G|-------------------------|x4|---------|
D|--------------55-5-5-3-2-|x4|-555555--|
A|--33-3-55-5--------------|x4|---------|
D|-------------------------|x4|---------|

Chorus
G|------------------------------------------------|x2
D|------------------------------------------------|x2
A|------------------------------------------------|x2
D|--333-/10-3--777-/10-7--333-/10-3--555-/10-9-5--|x2

Verse
G|-------------------------|x4|---------|
D|--------------55-5-5-3-2-|x4|-555555--|
A|--33-3-55-5--------------|x4|---------|
D|-------------------------|x4|---------|

Chorus
G|------------------------------------------------|x2|--------------|
D|------------------------------------------------|x2|--------------|
A|------------------------------------------------|x2|--------------|
D|--333-/10-3--777-/10-7--333-/10-3--555-/10-9-5--|x2|-999999999999-|

Bridge
G|------------------------|x3|-------------------------------------|
D|------------------------|x3|-------------------------------------|
A|-00000000---------------|x3|-00000000--------------333333-222222-|
D|----------333333-000000-|x3|----------555555555555---------------|

Final Chorus
G|----------------------------------------------------------|x2
D|----------------------------------------------------------|x2
A|--------0(x12)----------------------0(x12)----------------|x2
D|-3(x12)--------3(x12)-5(x12)-3(x12)--------3(x12)-5(x24)--|x2
            
Submit corrections

↑ Back to top | Tablatures and chords for acoustic guitar and electric guitar, ukulele, drums are parodies/interpretations of the original songs. You may use it for private study, scholarship, research or language learning purposes only