» » »

Used - Noise And Kisses Tabs

Artists:  A B C D E F G H I J K L M N O P Q R S T U V W X Y Z # 

Noise And Kisses Tabs

(ver. 1) Click to play this song!
Used
 Rating:
4/5 (4 votes)

 Noise And Kisses lessons Tabs too difficult? Try these video lessons and learn fast
 
                Drop D Tuning (DADGBe)

* = Palm Mute

Intro

e|----------------------------------------------
B|-1-1-1-1-1-1-1-1-1-1-1-1-1 ect.---------------
G|----------------------------------------------
D|----------------------------------------------
A|----------------------------------------------
E|----------------------------------------------

Verse 

e|--------------------------------------
B|--------------------------------------
G|--------------------0-0-----0-0-------
D|-xx3-3-2-xx3-3-2-xx-----2-xx----2-----
A|--------------------------------------
D|--------------------------------------

In The little break thing in the verse play some open strings

Pre-Chorus

e|-----------------------------------------
B|-----------------------------------------
G|-----------------------------------------
D|-5555555---------------------------------
A|-5555555-(PICK Scr*pE)-------------------
D|-5555555---------------------------------

Chorus

e|--------------------------------------------------------------
B|--------------------------------------------------------------
G|--------------------------------------------------------------
D|-10-10-10--7-7-7--3-3-3--5-5-5--3-3-3--7-7-7--3-3-3--5-5-5----
A|-10-10-10--7-7-7--3-3-3--5-5-5--3-3-3--7-7-7--3-3-3--5-5-5----
D|-10-10-10--7-7-7--3-3-3--5-5-5--3-3-3--7-7-7--3-3-3--5-5-5----

Pre-Bridge
e|----------------------
B|----------------------
G|----------------------
D|-5555555555-----------
A|-5555555555-----------
D|-5555555555-----------

Bridge

e|-------------------------------------------------------------------------
B|-------------------------------------------------------------------------
G|-------------------------------------------------------------------------
D|-77777-333-0000--77777-333-0000-77777-333-0000-77777-555555555555555-----
A|-77777-333-0000--77777-333-0000-77777-333-0000-77777-555555555555555-----
D|-77777-333-0000--77777-333-0000-77777-333-0000-77777-555555555555555-----

Song Order:

Intro
Verse x4
Litlle Verse Break thingy
Verse x4
Pre-Chorus
Chorus x1
Verse x4
Pre-Chorus
Chorus x1
Pre-Bridge
Bridge
Verse x4
Chorus x2


That's it I Think it's 90% percent right
            
Submit corrections


        Noise And Kisses lessons Hard to play? Try these video lessons and learn fast Noise And Kisses lessons
        
↑ Back to top | Tablatures and chords for acoustic guitar and electric guitar, ukulele, drums are parodies/interpretations of the original songs. You may use it for private study, scholarship, research or language learning purposes only