Home » U » Used »

Used - All That I've Got Bass

Artists:  A B C D E F G H I J K L M N O P Q R S T U V W X Y Z # 

All That I've Got Bass

(ver. 3) Click to play this song!
Used
 Rating:
4/5 (4 votes)
                (2)
Standard Tuning

E A D G


R i x X / 777




Intro only guitar


Preverse


|--------------------------------------|
|--------------------------------------|
|----------5-5-5-5-3-3-3-3-5-5-5-5-----|
|--3-3-3-3-----------------------------|


|--------------------------------------|
|--------------------------------------|
|----------5-5-5-5-3-3-3-3-3-3-3-------|
|--3-3-3-3-----------------------------|



verse 1

|-----------------------------------------|
|-----------------------------------------|   X 3
|----------5-5-5-5-7-7-7-7-5-5-5-5--------|  
|--3-3-3-3--------------------------------|

|-----------------------------------------|
|-----------------------------------------|  
|----------5-5-5-5-7-7-7-7-5-5-5-5-3-3-3--|  
|--3-3-3-3--------------------------------|


verse 2

|-----------------------------------------|
|-----------------------------------------|   X 3
|----------5-5-5-5-7-7-7-7-5-5-5-5--------|  
|--3-3-3-3--------------------------------|

|-----------------------------------------|
|-----------------------------------------|  
|----------5-5-5-5-7-7-7-7-5-5-5-5-3-3-3--|  
|--3-3-3-3--------------------------------|


Chorus

|-----------------------------------------------------------|
|-----------------------------------------------------------|  
|----------5-5-5-5-3-3-3-3-5-5-5-5-7-7-7-7-5-5-5-5-3-3-3-3-3|   
|--3-3-3-3--------------------------------------------------|

|-----------------------------------------------------------|
|-----------------------------------------------------------|  
|----------5-5-5-5-3-3-3-3-5-5-5-5-7-7-7-7-5-5-5-5-3-3-3-3-3|   
|--3-3-3-3--------------------------------------------------|

|------|
|------|  
|----5-|  
|--3---|


verse 3

|-----------------------------------------|
|-----------------------------------------|   X 3
|----------5-5-5-5-7-7-7-7-5-5-5-5--------|  
|--3-3-3-3--------------------------------|

|-----------------------------------------|
|-----------------------------------------|  
|----------5-5-5-5-7-7-7-7-5-5-5-5-3-3-3--|  
|--3-3-3-3--------------------------------|


Chorus

|-----------------------------------------------------------|
|-----------------------------------------------------------|  
|----------5-5-5-5-3-3-3-3-5-5-5-5-7-7-7-7-5-5-5-5-3-3-3-3-3|   
|--3-3-3-3--------------------------------------------------|

|-----------------------------------------------------------|
|-----------------------------------------------------------|  
|----------5-5-5-5-3-3-3-3-5-5-5-5-7-7-7-7-5-5-5-5-3-3-3-3-3|   
|--3-3-3-3--------------------------------------------------|

Bridge

|-------------|
|-------------|  
|-----5-3-3-5-|  X3
|--3-3--------|

|---------------|
|---------------|  
|-----5-3-3-5---|  
|--3-3--------5-|

only guitar

chorus

|-----------------------------------------------------------|
|-----------------------------------------------------------|  
|----------5-5-5-5-3-3-3-3-5-5-5-5-7-7-7-7-5-5-5-5-3-3-3-3-3|   
|--3-3-3-3--------------------------------------------------|

|-----------------------------------------------------------|
|-----------------------------------------------------------|  
|----------5-5-5-5-3-3-3-3-5-5-5-5-7-7-7-7-5-5-5-5-3-3-3-3-3|   
|--3-3-3-3--------------------------------------------------|

outro

|--------------------------------------|
|--------------------------------------| X5
|----------5-5-5-5-3-3-3-3-5-5-5-5-----|
|--3-3-3-3-----------------------------|

the end

|----|
|----|  
|----|  
|--3-|



R i x X / 777
            
Submit corrections

↑ Back to top | Tablatures and chords for acoustic guitar and electric guitar, ukulele, drums are parodies/interpretations of the original songs. You may use it for private study, scholarship, research or language learning purposes only