Home » U » Used »

Used - All That I've Got Bass

Artists:  A B C D E F G H I J K L M N O P Q R S T U V W X Y Z # 

All That I've Got Bass

(ver. 1) Click to play this song!
Used
 Rating:
4/5 (4 votes)
                The Used
Bass

Intro
G||-------------------|-------------------|-------------------|
D||-------------------|-------------------|-------------------|
A||-------------------|-------------------|-------------------|
D||-------------------|-------------------|-------------------|
 
G||---------------------|--------------------------|--------------------------|
D||--------------0------|--------------------------|--------------0--0--0--0--|
A||---------------------|--------------5--5--5--5--|--3--3--3--3--------------|
D||-----------2---------|--5--5--5--5--------------|--------------------------|

G||--------------------------|--------------------------|
D||--2--2--2--2--0--0--0--0--|--------------------------|
A||--------------------------|--3--3--3--3--3--3--3--3--|
D||--------------------------|--------------------------|

Verse 1 - No one tabs bass here but there is and its very soft and plays with the drums.
G||----------------------|----------------------|----------------------|----------------------|
D||-------------------2--|--0----------------0--|--2----------------2--|--0----------------0--|
A||----------------------|----------------------|----------------------|----------------------|
D||--5-------------------|----------------------|----------------------|----------------------|

G||----------------------|----------------------|----------------------|
D||-------------------2--|--0----------------0--|--2----------------2--|
A||----------------------|----------------------|----------------------|
D||--5-------------------|----------------------|----------------------|

G||----------------------|----------------------|----------------------|
D||--0----------------0--|----------------------|-------------------0--|
A||----------------------|------------------0-0-|----------------------|
D||----------------------|----------------------|--5-------------------|
 
G||-------------------------|-------------0-------0--|----------------0--------|
D||------------------0------|------------------------|--0-------0--2-----2--0--|
A||-------------0-------0-0-|------------------------|-------------------------|
D||--5-------5--------------|--5-------5-------------|-------------------------|
 
G||----------------------|-------------------------|-------------0-------0--|
D||-------------------0--|------------------0------|------------------------|
A||----------------------|-------------0-------0-0-|------------------------|
D||--5-------------------|--5-------5--------------|--5-------5-------------|
 
G||----------------0--------|--0----------------|
D||--0-------0--2-----2--0--|-------------------|
A||-------------------------|-------------------|
D||-------------------------|-------------------|

Chorus
G||--------------------------|
D||--------------------------|
A||--------------5--5--5--5--|
D||--5--5--5--5--------------|

G||--------------------------|--------------------------|
D||--------------0--0--0--0--|--2--2--2--2--0--0--0--0--|
A||--3--3--3--3--------------|--------------------------|
D||--------------------------|--------------------------|

G||--------------------------|--------------------------|
D||--------------------------|--------------------------|
A||--3--3--3--3--0--0--0--0--|--------------5--5--5--5--|
D||--------------------------|--5--5--5--5--------------|
 
G||--------------------------|--------------------------|
D||--------------0--0--0--0--|--2--2--2--2--0--0--0--0--|
A||--3--3--3--3--------------|--------------------------|
D||--------------------------|--------------------------|

G||--------------------------|
D||--------------------------|
A||--3--3--3--3--0--0--0--0--|
D||--------------------------|
  
Verse 2
G||----------------------|-------0-----------------|
D||------------------0-0-|------------------0-0----|
A||----------------------|----------3-----------3--|
D||----------------------|--5----------------------|
  
G||-----------------0-----|-------0-----------------|-----------------0-----|
D||--------------2-----2--|------------------0-0----|--------------2-----2--|
A||--3--------------------|----------3-----------3--|--3--------------------|
D||-----------------------|--5----------------------|-----------------------|
   
G||---------0-----------0-----|----------------------0-----|
D||---------------------------|--0---0-----0--2---2-----2--|
A||--3---3-----3-----3-----3--|----------------------------|
D||---------------------------|----------------------------|
 
G||---------0-----------0-----|---------9--11----12------9-7-|-------------------|
D||---------------------------|--0---0---------------12------|--5----------------|
A||--3---3-----3-----3-----3--|------------------------------|-------------------|
D||---------------------------|------------------------------|-------------------|

Chorus 
G||--------------------------|--------------------------|
D||--------------------------|--------------0--0--0--0--|
A||--------------5--5--5--5--|--3--3--3--3--------------|
D||--5--5--5--5--------------|--------------------------|
  
G||--------------------------|--------------------------|
D||--2--2--2--2--0--0--0--0--|--------------------------|
A||--------------------------|--3--3--3--3--0--0--0--0--|
D||--------------------------|--------------------------|
 
G||--------------------------|--------------------------|
D||--------------------------|--------------0--0--0--0--|
A||--------------5--5--5--5--|--3--3--3--3--------------|
D||--5--5--5--5--------------|--------------------------|
 
G||--------------------------|--------------------------|
D||--2--2--2--2--0--0--0--0--|--------------------------|
A||--------------------------|--3--3--3--3--0--0--0--0--|
D||--------------------------|--------------------------|

Bridge
G||--------------------------|--------------------------|
D||--------------------------|--------------0--0--0--0--|
A||--------------------------|--3--3--3--3--------------|
D||--2--2--2--4--5--5--5--5--|--------------------------|
 
G||--------------------------|--------------------------|
D||--------------------------|--------------0--0--0--0--|
A||--------------------------|--3--3--3--3--------------|
D||--2--2--2--4--5--5--5--5--|--------------------------|

G||--------------------------|--------------------------|
D||--------------------------|--------------0--0--0--0--|
A||--------------------------|--3--3--3--3--------------|
D||--2--2--2--4--5--5--5--5--|--------------------------|
                
G||--------------------------|--------------------------|
D||--------------------------|--------------0--0--0--0--|
A||--------------------------|--3--3--3--3--------------|
D||--2--2--2--4--5--5--5--5--|--------------------------|

Chorus
G||-------------------|---------------------|--------------------------|
D||-------------------|--------------0------|--2--2--2--2--0--0--0--0--|
A||-------------------|---------------------|--------------------------|
D||-------------------|-----------2---------|--------------------------|

G||--------------------------|--------------------------|
D||--------------------------|--------------------------|
A||--3--3--3--3--0--0--0--0--|--------------5--5--5--5--|
D||--------------------------|--5--5--5--5--------------|
 
G||--------------------------|--------------------------|
D||--------------0--0--0--0--|--2--2--2--2--0--0--0--0--|
A||--3--3--3--3--------------|--------------------------|
D||--------------------------|--------------------------|
 
G|--------------------------|
D||--------------------------|
A||--3--3--3--3--0--0--0--0--|
D||--------------------------|

Outro
G|--------------------------|--------------------------|
D||--------------------------|--------------0--0--0--0--|
A||--------------------------|--3--3--3--3--------------|
D||--2--2--2--4--5--5--5--5--|--------------------------|
                
G||--------------------------|--------------------------|
D||--------------------------|--------------0--0--0--0--|
A||--------------------------|--3--3--3--3--------------|
D||--2--2--2--4--5--5--5--5--|--------------------------|

G||------|
D||------|
A||------|
D||--5~--|
            
Submit corrections

↑ Back to top | Tablatures and chords for acoustic guitar and electric guitar, ukulele, drums are parodies/interpretations of the original songs. You may use it for private study, scholarship, research or language learning purposes only