Home » U » Used »

Used - All That I've Got Tabs

Artists:  A B C D E F G H I J K L M N O P Q R S T U V W X Y Z # 

All That I've Got Tabs

(ver. 2) Click to play this song!
Used
ALL THAT I'VE GOT by The Used


This is pretty much everything except for the guitar playing power chords. 
This sounds real nice with 2 acoustic guitars and vocals. Well, it should help you out.


Intro: Guitar 1
e|--3-3-3-3-3-3-3-3--0-0-0-0-0-0-0-0---|
B|--3-3-3-3-3-3-3-3--3-3-3-3-3-3-3-3---|
G|--0-0-0-0-0-0-0-0--0-0-0-0-0-0-0-0---|
D|--0-0-0-0-0-0-0-0--2-2-2-2-2-2-2-2---|
A|--2-2-2-2-2-2-2-2--2-2-2-2-2-2-2-2---|
E|--3-3-3-3-3-3-3-3--0-0-0-0-0-0-0-0---|

Intro: Guitar 2
e|---10------------10------------0~---------0~----------|
B|-------8-7-8--------8-7-8--------8-7-8------8-7-8-----|
G|------------------------------------------------------|
D|------------------------------------------------------| x2
A|------------------------------------------------------|
E|------------------------------------------------------| 

Intro cont:
e|--3-3-3-3--2-2-2-2--3-3-3-3--2-2-2-2--3-3-3-3----|
B|--3-3-3-3--3-3-3-3--3-3-3-3--3-3-3-3--3-3-3-3----|
G|--0-0-0-0--2-2-2-2--0-0-0-0--2-2-2-2--0-0-0-0----|
D|--0-0-0-0--0-0-0-0--2-2-2-2--0-0-0-0--2-2-2-2----|
A|--2-2-2-2--0-0-0-0--3-3-3-3--0-0-0-0--2-2-2-2----|
E|--3-3-3-3-----------------------------0-0-0-0----|

e --2-2-2-2--3-3-3-3--3-3-3-3---3~~~--|
B --3-3-3-3--3-3-3-3--3-3-3-3---3~~~--|
G --2-2-2-2--0-0-0-0--2-2-2-2---0~~~--|
D --0-0-0-0--2-2-2-2--2-2-2-2---0~~~--|
A --0-0-0-0--3-3-3-3--0-0-0-0---------|
E ------------------------------------|

Verse:
e|--0~-0-0~--0-0--0~-0-0---0~-0-0------|--3-3-3-3-3-3-3-3--|
B|--3~-3-3~--3-3--3~-3-3---3~-3-3------|--3-3-3-3-3-3-3-3--|
G|--0~-0-0~--0-0--2~-2-2---0~-0-0-(x4)-|--0-0-0-0-0-0-0-0--|x2
D|--2~-2-2~--2-2--0~-0-0---2~-2-2------|--0-0-0-0-0-0-0-0--| 
A|--3~-3-3~--3-3--0~-0-0---2~-2-2------|--x-x-x-x-x-x-x-x--|
E|-------------------------------------|--3-3-3-3-3-3-3-3--|

Chorus:
e|--3-3-3-3--2-2-2-2--3-3-3-3--2-2-2-2--3-3-3-3----
B|--3-3-3-3--3-3-3-3--3-3-3-3--3-3-3-3--3-3-3-3----
G|--0-0-0-0--2-2-2-2--0-0-0-0--2-2-2-2--0-0-0-0----
D|--0-0-0-0--0-0-0-0--2-2-2-2--0-0-0-0--2-2-2-2----
A|--2-2-2-2--0-0-0-0--3-3-3-3--0-0-0-0--2-2-2-2----
E|--3-3-3-3-----------------------------0-0-0-0----

e --2-2-2-2--3-3-3-3--3-3-3-3-----|   ---3~~~---|
B --3-3-3-3--3-3-3-3--3-3-3-3-----|   ---3~~~---|
G --2-2-2-2--0-0-0-0--2-2-2-2-----|x2 ---0~~~---|
D --0-0-0-0--2-2-2-2--2-2-2-2-----|   ---0~~~---|
A --0-0-0-0--3-3-3-3--0-0-0-0-----|   ---x------|
E --------------------------------|   ---3~~~---|
REPEAT VERSE:

REPEAT CHORUS:

Interlude: Guitar 1
e|--0-0-0-0--3-3-3-3--3-3-3-3--2-2-2-2---|    ---3~~~---|
B|--0-0-0-0--3-3-3-3--3-3-3-3--3-3-3-3---|    ---3~~~---|
G|--0-0-0-0--0-0-0-0--0-0-0-0--2-2-2-2---|x4  ---0~~~---|
D|--2-2-2-2--0-0-0-0--2-2-2-2--0-0-0-0---|    ---2~~~---|
A|--2-2-2-2--2-2-2-2--3-3-3-3--0-0-0-0---|    ---3~~~---|
E|--0-0-0-0--3-3-3-3---------------------|    ----------|

e|----------------------------------------|   ----------|
B|----------------------------------------|   ----------|
G|----------------------------------------|x4 ----------|
D|----------5-5-5--10101010--12-12-12-12--|   ---10~~~--|
A|----------x-x-x---x-x-x-x---x--x--x--x--|   ----x-----|
E|--0-0-0-2-3-3-3---8-8-8-8--10-10-10-10--|   ----8~~~--|


REPEAT VERSE: (1 time through)


Repeat Chorus: (starts like this)
e|-10-10-10-10-10-10-10-10-10-10-10-10-10-10-10-10--|
B|--8--8--8--8--8--8--8--8--8--8--8--8--8--8--8--8--|
G|--0--0--0--0--0--0--0--0--0--0--0--0--0--0--0--0--|
D|--9--9--9--9--9--9--9--9--9--9--9--9--9--9--9--9--|
A|-10-10-10-10-10-10-10-10-10-10-10-10-10-10-10-10--|
E|--------------------------------------------------|

REPEAT INTERLUDE:

Ending: Guitar 1 plays verse part

Guitar 2
e|---10------------10------------0~---------0~----------|
B|-------8-7-8--------8-7-8--------8-7-8------8-7-8-----|
G|------------------------------------------------------|
D|------------------------------------------------------| x2
A|------------------------------------------------------|
E|------------------------------------------------------| 

e|--10--------------------10---------------------------------|
B|------8--7-8-7-8-7-8--------8--7--8--7--8--7--8~-----------|
G|-----------------------------------------------------------|
D|-----------------------------------------------------------|
A|-----------------------------------------------------------|
E|-----------------------------------------------------------|
            
Submit corrections

↑ Back to top | Tablatures and chords for acoustic guitar and electric guitar, ukulele, drums are parodies/interpretations of the original songs. You may use it for private study, scholarship, research or language learning purposes only