» » »

Unknown Mortal Orchestra - So Good At Being In Trouble Tabs

Artists:  A B C D E F G H I J K L M N O P Q R S T U V W X Y Z # 

So Good At Being In Trouble Tabs

(ver. 2) Click to play this song!
Unknown Mortal Orchestra
 Rating:
3.6/5 (22 votes)

 So Good At Being In Trouble lessons Tabs too difficult? Try these video lessons and learn fast
 
                Verse:

e|-------------------------------------4--6--8--x---x---|
B|-------------------------------6-----2--4--6--9---9---|x2
G|------------------6------------6--5--3--5--6--8---10--|
D|-1h3-1------------6--6--8--10--6--6--x--x--x--8---10--|
A|-------1h3-----1--4---------------6--x--x--x------x---|
E|------------4--------4--6--8---6--4--2--4--6--8---9---|

e|------------------2--2---0----------|
B|------------------4--2---0h2p0------|
G|------------------4--3---1-----8----|
D|-1h3-1------------4--4---2-----8----|
A|-------1h3-----1--2--4---2-----6----|
E|------------4--------2---0----------|


Chorus:

e|---9----6----0----4-------|---9----7----6----x-------|
B|---7----4----0----2-------|---7----5----4----4-------|
G|---8----4----1----3-------|---8----6----4----5-------|
D|---x----x----2----x---(x3)|---x----x----x----4-------|
A|---x----x----2----x-------|---x----x----x----x-------|
E|---7----4----0----2-------|---7----5----4----4-------|            
Submit corrections


        So Good At Being In Trouble lessons Hard to play? Try these video lessons and learn fast So Good At Being In Trouble lessons
        
↑ Back to top | Tablatures and chords for acoustic guitar and electric guitar, ukulele, drums are parodies/interpretations of the original songs. You may use it for private study, scholarship, research or language learning purposes only