» » »

Unknown Mortal Orchestra - Cant Keep Checking My Phone Tabs

Artists:  A B C D E F G H I J K L M N O P Q R S T U V W X Y Z # 

Cant Keep Checking My Phone Tabs

(ver. 2) Click to play this song!
Unknown Mortal Orchestra
 Rating:
2.8/5 (23 votes)

 Cant Keep Checking My Phone  lessons Tabs too difficult? Try these video lessons and learn fast
 
                INTRO

e|--------------------------------------------------|
B|-----9-10p9-----8----9p8--------7-8p7-----6-------|
G|---9--------9------8----------7-------7---6-------|
D|--------------------------------------------------|
A|--------------------------------------------------|
E|-9--------------8-----------7-------------6-------|

e|--------------------------------------------------|
B|-------6h7p6----4------4---2------2---4--6--------|
G|----6--------6--5---5h6----3---3h4----5--6--------|
D|--------------------------------------------------|
A|--------------------------------------------------|
E|-6--------------4--4-------2--2-------4--6--------|


VERSE 

e|----5--5--5------5--5---5------------------5--5--5--|
B|----3--3--3------3--3---3------------------3--3--3--|
G|----4--4--4------4--4---4------------------4--4--4--|
D|----------------------------------------------------|
A|--------------2-------2-----0--2--3-----2-------2---|
E|-3-------3---------------------------3--------------|

e|--------------------------------5--5---5------2-----|
B|----2--2---2--------------------3--3---3------0-----|
G|----2--2---2------7--7---7------4--4---4------0-----|
D|----2--2---2------5--5---5--------------------------|
A|-0-------0-----3-------3----------------------------|
E|-----------------------------3-------3-----0--------|

e|--------------------------------------------5--5---5-|
B|-----------------2--2---2-------------------3--3---3-|
G|-----------------2--2---2------7--7--7------4--4---4-|
D|---2--4--5--7----2--2---2------5--5--5---------------|
A|--------------0-------0-----3-------3----------------|
E|-0--2---3--5-----------------------------3-------3---|

e|--------------------------------------|
B|----2--2---2------0-------------------|
G|----3--3---3------1-------------------|
D|----4--4---4------2--------2--4--5--7-|
A|--------------------------------------|
E|-2-------2-----0---------0--2--3--5---|


PRE-CHORUS (Begins at "We eat crickets")

e|--------------------------5-----5-----------------|
B|---0-----0-----2----2-----3-----3------2-----2----|
G|---1-----1-----2----2-----4-----4------2-----2----|
D|---2-----2-----2----2------------------2-----2----|
A|--------------------------------------------------|
E|-0---0-0-----2---2-2-----3--3-3------2---2-2------|

e|--------------------------5-----5-----------------|
B|---0-----0----2----2------3-----3-----------------|
G|---1-----1----2----2------4-----4----7------------|
D|---2-----2----2----2-----------------5------------|
A|-------------------------------------3------------|
E|-0---0-0-----2--2-2-----3---3-3-------------------|


CHORUS

e|----5--5----5------------------14--14--14----14--14--14-----|
B|----3--3----3------2--2-----2--12--12--12----12--12--12-----|
G|----4--4----4------2--2-----2--12--12--12----12--12--12-----| (x3)
D|-------------------2--2-----2-------------------------------|
A|------------------------------------------------------------|
E|-3-------3------2--------2-----12--12--12----12--12--12-----|

e|----5--5----5------------------0----|
B|----3--3----3------2--2-----2--0----|
G|----4--4----4------2--2-----2--1----|
D|-------------------2--2-----2--2----|
A|-------------------------------2----|
E|-3-------3------2--------2-----0----|

POST-CHORUS KEYBOARD MELODY

e|---------------------------------------------------|
B|-------------------------------------2-3-2---------|
G|-1---2-1---2-4---2-1---2-1---2-1---2------2-1------|
D|----------------------------------------------2-0--|
A|---------------------------------------------------|
E|---------------------------------------------------|            
Submit corrections


        Cant Keep Checking My Phone  lessons Hard to play? Try these video lessons and learn fast Cant Keep Checking My Phone  lessons
        
↑ Back to top | Tablatures and chords for acoustic guitar and electric guitar, ukulele, drums are parodies/interpretations of the original songs. You may use it for private study, scholarship, research or language learning purposes only