» » »

Unknown Mortal Orchestra - Necessary Evil Tabs

Artists:  A B C D E F G H I J K L M N O P Q R S T U V W X Y Z # 

Necessary Evil Tabs

(ver. 1) Click to play this song!
Unknown Mortal Orchestra
 Rating:
4.1/5 (24 votes)

 Necessary Evil  lessons Tabs too difficult? Try these video lessons and learn fast
 
                e|--------------------|
B|-------5--------5---|
G|-------5--------5---|   x10
D|-------5--------5---|
A|--------------------|
E|--5-5------5-5------|

e|--5~~~------3~~~-------2~~~-------3--5--------|
B|--x---------x----------x----------x--x--5~~~--|
G|--4~~~------2~~~-------1~~~-------2--4--5~~~--|
D|--5~~~------3~~~-------2~~~-------3--5--5~~~--|
A|--x---------x----------2~~~-------x--x--------|
E|--3~~~------1~~~-------0~~~-------1--3--5~~~--|

u need a new drug........ i wanna be your friend
e|--8-------5---2---------8-------2-------3--5-----|
B|--x---5---------------------5-----------------5--|
G|--7---5---4---1---------7---5---1-------2--4--5--|
D|--8---5---5---2---------8---5---2-------3--5--5--|
A|--x-----------2-----------------2----------------|
E|--6---5---3---0---------6---5---0-------1--3--5--|

  we're in love....but i don't get what you see in me
e|-----------------------8~~~---|
B|--5--7--8~~~--------7---------|
G|--5--7--8~~~--------7--7~~~---|
D|--5--7--8~~~--------7--8~~~---|
A|------------------------------|
E|--5--7--8~~~--------7--6~~~---|
   
 lovin' me ....could be your fatal flaw
e|--------------13~~~--8~~~--3~~~---------|
B|----------------------------------------|
G|--6--7--9-----12~~~--7~~~--2~~~---------|
D|--7--8--10----13~~~--8~~~--3~~~---------|
A|----------------------------------------|
E|--5--6--8-----11~~~--6~~~--1~~~---------|

  necessary evil
e|--------------13~~~--8~~~--3~~~---------|
B|----------------------------------------|
G|--6--7--9-----12~~~--7~~~--2~~~---------|
D|--7--8--10----13~~~--8~~~--3~~~---------|
A|----------------------------------------|
E|--5--6--8-----11~~~--6~~~--1~~~---------|

repeat             
Submit corrections


        Necessary Evil  lessons Hard to play? Try these video lessons and learn fast Necessary Evil  lessons
        
↑ Back to top | Tablatures and chords for acoustic guitar and electric guitar, ukulele, drums are parodies/interpretations of the original songs. You may use it for private study, scholarship, research or language learning purposes only