» » »

Unknown Mortal Orchestra - Cant Keep Checking My Phone Tabs

Artists:  A B C D E F G H I J K L M N O P Q R S T U V W X Y Z # 

Cant Keep Checking My Phone Tabs

(ver. 1) Click to play this song!
Unknown Mortal Orchestra
 Rating:
3.6/5 (23 votes)

 Cant Keep Checking My Phone  lessons Tabs too difficult? Try these video lessons and learn fast
 
                Tuning: Standard

Synth
e|---------------|-----|---------------|-----|
B|------8-9-8----|--7--|------6-7-6----|--5--|
G|--6-7----------|-----|--4-6----------|-----|
D|---------------|-----|---------------|-----|
A|---------------|-----|---------------|-----|
E|---------------|-----|---------------|-----|

e|-----------0-----|------------------|--------------8--|--7--5----|
B|-----------------|------------------|-----------------|----------|
G|--2----2-2----2--|--4----4-5-7-5-4--|--7----5-9-------|----------|
D|-----------------|------------------|-----------------|----------|
A|-----------------|------------------|------------7----|----------|
E|-----------------|------------------|-----------------|----------|

e|--(5)--|
B|-------|
G|-------|
D|-------|
A|-------|
E|-------|            
Submit corrections


        Cant Keep Checking My Phone  lessons Hard to play? Try these video lessons and learn fast Cant Keep Checking My Phone  lessons
        
↑ Back to top | Tablatures and chords for acoustic guitar and electric guitar, ukulele, drums are parodies/interpretations of the original songs. You may use it for private study, scholarship, research or language learning purposes only